Ads

Difficult (One Piece) Guitar Tab

Submitted: Feb 10, 2012 by Omnicide

5
Average: 5 (6 votes)
Download | Listen
Game: One Piece
Composer(s): Shiro Hamaguchi
Style: Arrangement, Fingerstyle

This song is also called Shichibukai

AutoScroll: Slow | Medium | Fast
Difficult
One Piece
Composed by Shiro Hamaguchi
Arranged by William Geesdorf


CADGBE Tuning


     Q    E  Q    E  Q    E  E     S S S S S S S S S S S S S S S S S S S S  
E||-----------------------------|------------------------------------------|
B||-----------------------------|----5-----4-----3-----2-----1-----0-------|
G||-------3--3----2--2----6--6--|------5-----4-----3-----2-----1-----0---3-|
D||-------1--1----0--0----4--4--|--------7-----6-----5-----4-----3-----2---|
A||-----------------------------|------------------------------------------|
C||--0--------------------------|------------------------------------------|


  W                Q       Q    E  Q    E  Q     E   E   
------------------------|-------------------------------|
------------------------|-------------------------------|
--L---------------------|-------8--8----7--7----11--11--|
------------------------|-------6--6----5--5-----9---9--|
------------------------|-------------------------------|
-------------------7----|--0----------------------------|


  S S S S S S S S S S S S S S S S S S S S    W                E  E   
----5-----4-----3-----2-----1-----0-------|-------------------------|
------6-----5-----4-----3-----2-----1---4-|--L----------------------|
--------7-----6-----5-----4-----3-----2---|-------------------------|
------------------------------------------|-------------------------|
------------------------------------------|-------------------------|
------------------------------------------|-------------------7--7--|


  Q    E  E  Q    Q    Q       Q    Q     Q    H           W                 
-------------1----4----3----|--8----7----10-------------|-------------------|
-------3--4-----------------|------------------8--------|--L----------------|
--5-------------------------|------------------7--------|--L----------------|
----------------------------|---------------------------|-------------------|
--3----------2---------0----|---------------------------|-------------------|
----------------------------|-------6----------7--------|--L----------------|


  W                   H        E  E  E  E     H        H           H        H         
-------------------|-----------------------|--------------------|--------------------|
--L----------------|--L--------------------|-----------1--------|--0--------1--------|
--L----------------|--L--------------------|--------------------|--------------------|
-------------------|-----------------------|-----------1--------|--0--------1--------|
-------------------|-----------------------|--------------------|--------------------|
--L----------------|--L--------7--7--7--7--|--0-----------------|--------------------|


  H        H           H        H           H        E  E  E  E   
--------------------|--------------------|-----------------------|
--4--------3--------|--0--------1--------|-----------------------|
--0-----------------|--------------------|--2--------------------|
-----------3--------|--0--------1--------|-----------------------|
--------------------|--------------------|--0-----------0--2--3--|
--0-----------------|--------------------|--0--------7-----------|


  E  E  E  E  E  E  E   E     H        H           H        H         
---------------------------|--------------------|--------------------|
---------------------------|-----------1--------|--0--------1--------|
---------------------------|--------------------|--------------------|
--0-----0------------------|-----------1--------|--0--------1--------|
-----3-----6--8--6--8--10--|--------------------|--------------------|
--------------------7---7--|--0-----------------|--------------------|


  H        H           H        H           H        H           E  E  E  E  E  E  E  E   
--3--------1--------|--------------------|-----------3--------|--3-----------------------|
--------------------|--3--------4--------|--1--------3--------|--3-----------------------|
--3--------1--------|-----------0--------|-----------0--------|--------------------------|
--------------------|--3-----------------|--1-----------------|--3--1--0-----------------|
--------------------|--------------------|--------------------|-----------3--2--0--2-----|
--0-----------------|--------------------|--0-----------------|-----------------------7--|


  E  E  E  E  E  E  E  E     E  E  E  E  E  E  E  E     E  E  E  E  E  E  E  E   
--------------------------|--------------------------|--------------------------|
--------------------------|--------------------------|--------------------1--3--|
--------------------------|--0-----0-----1--0--1-----|--4--0--------------------|
--1--0--1-----3--1--3--0--|-----3-----1-----------3--|--------0--3--1--0--------|
--3--------3--------------|--------------------------|--------------------3-----|
--0-----------0-----------|--0-----------0-----------|--0-----------0-----------|


  E  E  E  E  E  E  E  E     E  E  E  E  E  E  E   E      E  E  E  E  E  E  E  E   
--------------------------|---------------------------|--10--7--------------------|
--4--3--4-----6--4--6-----|--8--6--8-----9--8--9------|------------6-----------6--|
-----------5-----------7--|-----------8-----------10--|---------7-----8--7--8-----|
--------------------------|---------------------------|---------------------------|
--------------------------|---------------------------|---------------------------|
--0-----------0-----------|--0-----------0------------|---0-----------0-----------|


  Q    E   E   E  E  E   E     E  E  E  E  E  E  E  E     E  E  E  E  E  E  E  E   
----------------------------|--------------------------|--------------------------|
--8-------------------------|--------------1--------1--|--------------------------|
--7----0----------0--0------|--5--0--0--5--3--0--0-----|--5--0--0--5--5--0--0--5--|
----------10--10--------10--|--6-----------------------|--------------5-----------|
----------------------------|--------------1-----------|--3-----------------------|
--7-------------------------|--8-----------------------|--------------3-----------|


                                         ^                                       
  E  E  E  E  E  E  E  E     E  E  E  E  E  E  E  E     E  E  E  E  E  E  E  E   
--------------------------|--------------------------|--------------------------|
--------------------------|--------------------------|--------------------------|
--5--0--0--5--5--0--0--5--|--5--0--0--5--5-----5--5--|--5-----5--5--5--5--5--5--|
--6-----------------------|--8-----------5-----5--5--|--5-----5--5--5--5--5--5--|
--------------------------|--------------3-----------|--------------------------|
--5-----------------------|--7-----------0-----------|--------------------------|


                                               |---3--|                              
  E  E  E  E  E  E  E  E     E  E  E  E  E  E  E  E   E     E  E  E  E  E  E  E  E   
--------------------------|------------------------------|--------------------------|
--------------------------|------------------------------|--------------------------|
--5-----5--5--5-----5--5--|--5--5--5--5--5---------------|--------------------1-----|
--5-----5--5--5-----5--5--|--5--5--5--5--5--------0h--1--|--3-----------------------|
--------------------------|--------------------3---------|--------------------------|
--------------------------|--------------0---------------|--0-----------0-----------|


  E  E  E  E  E  E  E  E     E  E  E  E  E  E  E  E     E  E  E  E  E  E  E  E   
--------------------------|--------------------------|--------------------------|
--------1-----0-----3-----|--1-----------------------|--------------------------|
--0-----------------------|--------------------------|--0-----------------------|
--------------------------|--------1-----3--1--3--0--|-----------3--1-----0-----|
--------------------------|--------------------------|-----------------------3--|
--0-----------0-----------|--0-----------0-----------|--0-----------0-----------|


  E  E  E  E  E  E  E  E     E  E  E  E  E  E  E  E     E  E  E  E  E  E  E  E   
--------------------------|--------------------3-----|--------5-----3-----------|
--------------1-----------|--------4-----3-----------|--7-----------------------|
--0-----2--3--------------|--------------------------|--------------------3-----|
--------------------------|--1-----0-----------------|--------------------------|
--1-----------------0-----|-----------3--1-----------|--0--------0--1-----------|
--------------------------|--------------------------|-----7--6-----------0--2--|


  E  E  E  E  E  E  E  E     E   E  E  E   E  E  E  E      E  E  E  E   E  E  E  E   
--------------------------|----------------------------|----------------------------|
--1-----1-----3-----------|----------------------------|----------------------9-----|
-----3-----2-----------5--|----------------------7--8--|--10------------------------|
--------------------------|--9------7--9--10-----------|----------------------------|
--------------------------|-----10---------------------|---0------------------------|
--3-----------5--2--3--5--|--7------7------8-----------|---------------11-----------|


  E  E  E  E  E  E   E  E     E  E  E  E  E  E  E  E     E  E  E  E  E  E  E  E   
--3-----8-----7-----10-----|--8-----------------------|--------------------------|
---------------------0-----|--------------------------|--------------------------|
---------------------0-----|--------------------------|--0--------------2--4--5--|
--------0--------6---------|-----0--1-----3--1--3--0--|-----3--1--0--5-----------|
--3--------6--8---------8--|--6--------1--0-----------|--------------3-----------|
---------------------------|--0-----------2-----------|--------0--2--3-----4-----|


  E  E  E  E   E  E  E   E     E  E   E  E  E  E  E  E     E  E  E  E  E  E  E  E   
----------------------------|---------------------------|--------------------4-----|
-----6----------------------|---------------1-----3--4--|--6-----------------6-----|
--3-----8--7--10--8--7------|--8--7------------------0--|--------------------------|
-----6------------------10--|--------10--9--1-----3-----|--6-----------------------|
----------------------------|---------------------------|--------------------------|
--5-----8------7------------|--7------------0-----------|--0-----------0-----------|


  E  E  E  E  E  E   E  E      E  E  E  E  E  E  E  E     E  E  E  E  E  E  E  E   
--3-----8-----7-----10-----|---8-----------------------|--------------------3--8--|
--4------------------------|---------------6--4--6--3--|--4--3--1--0-----4--------|
--------5-----7------------|---------------------------|--------------5-----------|
---------------------7--9--|--10--3--1--0--------------|--------------------------|
---------------------------|---------------3-----------|--------0--2--------------|
--0-----------0------------|---0-----------0-----------|--0-----------3-----------|


  E  E  E  E  E   E  E  E     E  E  E  E  H           H        H         
--6---------------------8--|-----8-----7--8--------|--8--------7--------|
-----9--8--6---------------|--------------8--------|--------------------|
--------------8------8-----|--7-----7-----8--------|--8--------7--------|
-----------------10--------|--0--------------------|--------------------|
---------------------------|--------8--------------|--------------------|
--5-----------7------------|--------------0--------|--0--------0--------|


  H         H            H        H           H        H         
--8--------11--------|--10--------7--------|--8-----------------|
---------------------|---------------------|-----------8--------|
--8--------12--------|--10--------7--------|--8-----------------|
---------------------|---------------------|-----------7--------|
---------------------|---------------------|--------------------|
--0---------0--------|---0--------0--------|--0--------0--------|


  E  E  E  E  E  E  E  E     E  E  E   E  H           H        H         
--------------------------|------------------------|--8--------7--------|
--------------------------|------------------------|--------------------|
--------------------------|------------------------|--8--------7--------|
--------------0-----0-----|------------------------|--------------------|
-----0--2--3-----3-----6--|--8--6--8--10-----------|--------------------|
--7-----------------------|--------7---7--0--------|--0--------0--------|


  H         H            H         H            H        H         
--8--------15--------|--13--------10--------|--11--------8--------|
---------------------|----------------------|---------------------|
--8--------15--------|--13--------10--------|--12--------8--------|
---------------------|----------------------|---------------------|
---------------------|----------------------|---------------------|
--0---------0--------|---0---------0--------|---0--------0--------|


  Q    E  E  E  E  E  E     E  E  E  E  E  E  E  E     E  E  E  E  E  E  E  E   
--7----4--3--------------|--------------------------|--------------------------|
--8----------6--4--3--1--|--0-----------------1-----|--0-----------4-----------|
--7----------------------|-----2--------------------|--------5-----------7-----|
-------------------3-----|--1-----3-----1-----------|--------------------------|
-------------------------|--------5-----3-----1-----|--------------------------|
--7----------------------|--------------------------|--8-----7-----6-----7-----|


  ^                                      
  W                   W                  
-------------------|-------------------||
-------------------|-------------------||
--5----------------|--L----------------||
--5----------------|--L----------------||
--3----------------|--L----------------||
--0----------------|--L----------------||




Duration Legend
---------------
W - whole
H - half
Q - quarter
E - 8th
S - 16th
T - 32nd
X - 64th
. - note dotted
|-n-|  - n-tuplets


Tablature Legend
----------------
L - tied note
h - hammer on
^ - brush up
Login or Register to remove this ad.

6 comments on Difficult

Sweet arrangement! Do you

5

Sweet arrangement!
Do you plan on doing more OP arrangements in the future?

Thanks, maybe i do (though i

Thanks, maybe i do (though i don't have any song in mind now)

edit: well, i'm writing some stuff for my band so i will make arrangements less frequently than normal

Just listening to the

Just listening to the recording that was schweet!

that's a MIDI tranformed with

that's a MIDI modified with Fl Studio (i don't have ways to record myself playing it)

Either way still awesome!

Either way still awesome!

13th Tact

-----------------------|--------------------|--------------------|
--L----------------|--L--------------------|-----------1--------|--0--------1--------|
--L----------------|--L--------------------|--------------------|--------------------|
-------------------|-----------------------|-----------1--------|--0--------1--------|
-------------------|-----------------------|--------------------|--------------------|
--L----------------|--L--------7--7--8--8--|--0-----------------|--------------------|

I think thats more right if someone listen closely to the Midi.