Ads

Bink's Sake (One Piece) Guitar Tab

Submitted: May 31, 2011 by Ranulf

5
Average: 5 (5 votes)
Download | Listen
Game: One Piece
Composer(s): Shiro Hamaguchi
Style: Arrangement, Fingerstyle

AutoScroll: Slow | Medium | Fast
Bink's Sake
One Piece
Anime
Arranged by John Adams
Composed by Eiichiro Oda and Kouhei Tanaka
5/29/2011


Capo on 5th fret

      Yo hoo ho hoooo  Yo  ho  hoooo    hooooo   Yo hoo ho  hoooo  Yo  ho  hoooo   hooooo
                       ^                ^                          ^               ^     
e||----------0--0------2---0------------0---------------0---0------2---0-----------------||
B||---1h-2-------------1-------1h-2-----0--------1h-2--------------1-------1h-2----------||
G||*--2--L---2--2------2---2---2--L-----2--------2--L---2---2------2---2---2--L----2----*||
D||*-------------------0-------------------------------------------0---------------2----*||
A||---0--L---------------------0--L--------------0--L----------------------0--L----0-----||
E||--------------------------------------------------------------------------------------||

         ^            ^        
--0---------------------------|
------2--0--------------------|
--0------0---2--------1h-2----|
---------0-------4----0--L----|
--0--------------0----0--L----|
------------------------------|

         ^                                     ^         ^                 ^  
--0---------------------------------------------------------------------------|
------2--0--------------------------------------------3--2--2h-3p-2p-0-----0--|
--0------0---2------2------------2-------------1h-2------0--------------2--0--|
---------0-------4------2-----4------2-----4---0--L------------------------0--|
--0--------------0------0-----0------0-----0---0--L------0--------------------|
------------------------------------------------------------------------------|

         ^            ^        
--0---------------------------|
------2--0--------------------|
--0------0---2--------1h-2----|
---------0-------4----0--L----|
--0--------------0----0--L----|
------------------------------|

         ^                                     ^         ^       ^         ^  
--0------------------------------------------------------------------------------||
------2--0--------------------------------------------3--2h3p2---0h2p0--0--------||
--0------0---2------2------------2-------------1h-2------0-L-L---0-L-L-----2----*||
---------0-------4------2-----4------2-----4---0--L--------------0-L-L-----2----*||
--0--------------0------0-----0------0-----0---0--L------0-L-L-------------0-----||
---------------------------------------------------------------------------------||
Login or Register to remove this ad.

7 comments on Bink's Sake

nice!

5

nice!

Thanks, man :D

Thanks, man :D
and also thanks for the help again.

^^

^^

Yohooohohohohoho!

Binkusu no sake wo, todoke ni yuko yo...

Funny XD
Great Tab.

Thanks :D

Thanks :D

This song brings tears to my

This song brings tears to my eyes, although I'm a skeleton, so I haven't got any eyes! YOHOHOHOHOHO!

SKULL JOKE!!!!!!

SKULL JOKE!!!!!!