Ads

Therion, the Thief (Octopath Traveler) Bass/Guitar Tab

Submitted: Jul 16, 2018 by StyrofoamShotgun (Last updated: Jul 17, 2018)

5
Average: 5 (1 vote)
Download | Listen
Game: Octopath Traveler
Composer(s): Yasunori Nishiki
Style: 2 or more instruments, Transcription

AutoScroll: Slow | Medium | Fast
Time signature: 3/4
Bpm: 65


Rhythm

   Em           Dm/E         Am           Em
   E SE SE E SS E SE SE E SS E SE SE E SS E SE SE E SS
E||------------|------------|------------|------------|
B||------------|------------|------------|------------|
G||---0------0-|------------|---2------2-|---0------0-|
D||------------|---4------4-|------------|------------|
A||--2--2--2--2|--0--0--0--0|--3--3--3--3|-2---2--2--2|
E||0-----0-----|0-----0-----|0-----0-----|0-----0-----|


E SE SE E SS E SE SE E SS E SE SE E SS E SE SE E SS
------------|------------|------------|------------|
------------|------------|------------|------------|
---0------0-|------------|---2------2-|---0------0-|
------------|---4------4-|------------|------------|
--2--2--2--2|--0--0--0--0|--3--3--3--3|-2---2--2--2|
0-----0-----|0-----0-----|0-----0-----|0-----0-----|


E SE SE E SS E SE SE E SS E SE SE E SS E SE SE E SS
------------|------------|------------|---0------0-|
------------|------------|------------|------------|
---0------0-|------------|---2------2-|------------|
------------|---4------4-|------------|--4--4--4--4|
--2--2--2--2|--0--0--0--0|--3--3--3--3|------2-----|
0-----0-----|0-----0-----|0-----0-----|0-----------|


Em           D                Dm           Am
E. E. S S E  E. E. E S S S S  E. E. E S E  E. E. S S E E
0--0--0-0-0-|2--2--L-2-2-2-2-|2--2--L-2-2-|0--0--L-0-0-0-|
0--0--0-0-0-|3--3--L-3-3-3-3-|3--3--L-3-3-|1--1--L-1-1-1-|
0--0--0-0-0-|2--2--L-2-2-2-2-|2--2--L-2-2-|2--2--L-2-2-2-|
2--2--2-2-2-|0--0--L-0-0-0-0-|0--0--L-0-0-|2--2--L-2-2-2-|
2--2--2-2-2-|0--0--L-0-0-0-0-|0--0--L-0-0-|0--0--L-0-0-0-|
0--0--0-0-0-|----------------|------------|--------------|


Ebm          Gm             A    Ebm     Dsus4/A    D
E. E. E S E. E. E. S S Q    E. E E. Q    E.  E.   E S S S S  Q.
3--3--3-3-3-|3--3--3-3-3---|0--0-3--3---|3---3----L-2-2---2-|L--------:
4--4--4-4-4-|3--3--3-3-3---|2--2-4--4---|3---3----L-3-3---3-|L--------:
3--3--3-3-3-|3--3--3-3-3---|2--2-3--3---|2---2----L-2-2---2-|L--------:
1--1--1-1-1-|5--5--5-5-5---|2--2-1--1---|0---0----L-0-0---0-|L--------:
------------|5--5--5-5-5---|0--0--------|0---0----L-0-0---0-|L--------:
------------|3--3--3-3-3---|------------|-------------------|---------:



Lead/melody 1

   H.           H.           H.           Q   E S S S S S S
E||------------|------------|------------|--------------5-7|
B||------------|------------|------------|--------5-7-8----|
G||------------|------------|------------|-----------------|
D||------------|------------|------------|-----------------|
A||------------|------------|------------|-----------------|
E||------------|------------|------------|-----------------|


Q.  E. S S S H    E  T T  Q. S S S  S S S  Q.   S S S S S S
8---7--7-7--|5----L--5-7-|8--L-7-10-8-7---|7------------5-7|
-----------8|------------|--------------10|-------5-7-8----|
------------|------------|----------------|----------------|
------------|------------|----------------|----------------|
------------|------------|----------------|----------------|
------------|------------|----------------|----------------|


Q.  E. S S S H    E  T T  H  S S S S  H.
8---7--7-7--|5----L--5-7-|8----7-5---|------------|
-----------8|------------|---------8-|7-----------|
------------|------------|-----------|------------|
------------|------------|-----------|------------|
------------|------------|-----------|------------|
------------|------------|-----------|------------|


S S  S  S S  S  Q   E   H.           S S  S S  S  S  Q   E  H   S S S S
--12-10-8--------------|------------|----------------------|-------------|
----------12-10-12--10-|------------|----------------------|-------------|
-----------------------|7-----------|--10-9----------------|9---L---9-11-|
-----------------------|------------|-------12-10-8--10--9-|-------------|
-----------------------|------------|----------------------|-------------|
-----------------------|------------|----------------------|-------------|


S S  S  E S  E.  S  S  S  H     E  E   E  S  S  S  Q    S  S  S   Q.    Q.     Q.
--------------------13-11|10----------|------------15---15-17-15-|15----14----|L-------:
8-10-11-L-10-13--11------|---------15-|14-14-13-14---------------|------------|--------:
-------------------------|------------|--------------------------|------------|--------:
-------------------------|------------|--------------------------|------------|--------:
-------------------------|------------|--------------------------|------------|--------:
-------------------------|------------|--------------------------|------------|--------:


Lead/melody 2

   H.           H.           H.           Q   E S S S S S S
E||------------|------------|------------|-----------------|
B||------------|------------|------------|-----------------|
G||------------|------------|------------|-----------------|
D||------------|------------|------------|--------------2-4|
A||------------|------------|------------|--------2-4-5----|
E||------------|------------|------------|-----------------|


Q.  E. S S S H    E  T T  H  S S S S  H.
------------|------------|-----------|------------|
------------|------------|-----------|------------|
5---4--4----|2----L--2-4-|5----4-----|------------|
---------4-5|------------|-------2-5-|4-----------|
------------|------------|-----------|------------|
------------|------------|-----------|------------|


S S S Q  S S S S S  Q  E  Q.   S S S  Q   S S  S  S S   H.
-------------------|------7---|-------------------8-10-|12-----------------|
---------------3-5-|7--5------|6-8-10-L---8-10-12------|-------------------|
--2-4-L--2-4-5-----|----------|------------------------|-------------------|
5------------------|----------|------------------------|-------------------|
-------------------|----------|------------------------|-------------------|
-------------------|----------|------------------------|-------------------|


H.           S S  Q    S  S S  S  E  E  S  S  S  Q   S  S  S  Q.    Q.     Q.
11----------|-------------8---------|------------------------|------------|------------:
------------|8-10-11---10---11-10-11|-------------------10---|------------|------------:
------------|-----------------------|------------12--12----12|12----11----|L-----------:
------------|-----------------------|11-11-10-11-------------|------------|------------:
------------|-----------------------|------------------------|------------|------------:
------------|-----------------------|------------------------|------------|------------:



Bass

   E.  H Q.   S E. S H       E.  H Q.   S E. S H       
G||------------|------------|------------|------------|
D||2-----------|2--2--------|2-----------|2--2--------|
A||-----------3|------------|-----------3|------------|
E||------------|------------|------------|------------|


E.  H Q.   S E. S H       E.  H Q.   S E. S H       
------------|------------|------------|------------|
2-----------|2--2--------|2-----------|2--2--------|
-----------3|------------|-----------3|------------|
------------|------------|------------|------------|


E.  H Q.   S E. S H       E.  H Q.   S E E H       
------------|------------|------------|------------|
2-----------|2--2--------|2-----------|------------|
-----------3|------------|-----------3|2-----------|
------------|------------|------------|------------|


H.           H.           H.           H.
------------|------------|2-----------|------------|
2-----------|0-----------|------------|1-----------|
------------|------------|------------|------------|
------------|------------|------------|------------|


H.           H     E   E  Q  S Q.   S  H.           Q.
------------|0---------0-|2--L--------|------------|------------:
1-----------|------------|-----1----L-|0-----------|L-----------:
------------|------------|------------|------------|------------:
------------|------------|------------|------------|------------:



Duration Legend
---------------
W - whole
H - half
Q - quarter
E - 8th
S - 16th
T - 32nd
X - 64th
. - note dotted
|-n-|  - n-tuplets


Tablature Legend
----------------
L - tied note
x - dead note
g - grace note
(n) - ghost note
> - accentuded note
NH - natural harmonic
AH - artificial harmonic
TH - tapped harmonic
SH - semi harmonic
PH - pitch harmonic
h - hammer on
p - pull off
b - bend
br - bendRelease
pb - preBend
pbr - preBendRelease
brb - bendReleaseBend
\n/ - tremolo bar dip
\n - tremolo bar dive
-/n - tremolo bar Release up
/n\ - tremolo bar inverted dip
/n - tremolo bar return
-\n - tremolo bar Release down
S - shift slide
s - legato slide
/ -  slide into from below or out of upwards
\ -  slide into from above or out of downwards
~ - vibrato
W - wide vibrato
tr - trill
TP - tremolo picking
T - tapping
S - slap
P - pop
< - fade in
^ - brush up
v - brush down
Login or Register to remove this ad.