Cyrus the Scholar (Octopath Traveler) Guitar Tab

Submitted: Oct 20, 2018 by guitarsvd (Last updated: Oct 20, 2018)

5
Average: 5 (2 votes)
Download | No audio :(
Game: Octopath Traveler
Composer(s): Yasunori Nishiki
Style: Fingerstyle, Tremolo

Click here for a video example.

AutoScroll: Slow | Medium | Fast
 Cyrus the Scholar                                 


                                                          Cecil Chau (GuitarSVD)
Track 1



     Q    Q    Q       Q    Q    Q       Q    Q    Q       Q    E   E  E  E   
E||-----------------|-----------------|--0--------------|-------0h--2--3--5--|
B||-------0----0----|-------0----0----|-------0----0----|-------0------0-----|
G||-------0----0----|-------0---------|-------0----0----|-------0------0-----|
D||-----------------|-----------------|-----------------|--------------------|
A||-----------------|--2--------------|-----------------|--2-----------------|
E||--0--------------|-----------------|--0--------------|--------------------|


  Q    E  E  Q       Q    E  E  E   E     Q    E  E  Q       Q    Q     Q     
--7-------5--3----|--0-------2--3h--5--|--7-------5--3----|--2----5----10----|
-------0-----0----|-------0-----0------|-------0-----0----|-------7-----7----|
-------0-----0----|-------0-----0------|-------0-----0----|-------7-----7----|
------------------|--------------------|------------------|--0---------------|
------------------|--2-----------------|------------------|------------------|
--0---------------|--------------------|--0---------------|------------------|


  Q    E  E  Q       Q    Q    Q       Q    Q    Q       Q    E   E  E  E   
--8-------7--5----|--7--------------|--0--------------|-------0h--2--3--5--|
--8----8-----5----|--7----7----0----|-------0----0----|-------0------0-----|
-------0-----5----|-------8---------|-------0----0----|-------0------0-----|
------------------|-----------------|-----------------|--------------------|
------------------|-----------------|-----------------|--2-----------------|
--8---------------|--7--------------|--0--------------|--------------------|


  Q    E  E  Q       Q    Q    E  E     Q    E  E  Q       Q    Q    Q     
--7-------5--3----|--0---------0--2--|--3-------5--3----|--2----0---------|
-------0-----0----|-------0----0-----|-------0-----0----|--0----0----4----|
-------0-----0----|-------0----0-----|-------0-----0----|--2----2----2----|
------------------|------------------|------------------|-----------------|
------------------|--2---------------|------------------|--2--------------|
--0---------------|------------------|--0---------------|-----------------|


  Q    Q    Q       Q    E   E  E  E     E  E  E  E  Q       E  E  E  E  E  E   
--0--------------|--------------5--7--|--8--------7--5----|--2-----3-----5-----|
-------0----0----|-------7h--8--0-----|--------5----------|--------3-----3-----|
-------0----0----|-------0------0-----|-----5-------------|-----2-----2-----2--|
-----------------|--------------------|-------------------|--0-----------------|
-----------------|--------------------|--0----------------|--------------------|
--0--------------|--0-----------------|-------------------|--------------------|


  E  E  E  E  E  E     Q    Q    Q        E  E  E   E   Q       Q    Q    Q     
--7-----------------|--L----7----9----|--10--------12--10----|--9----7----6----|
-----------0--------|-------3----5----|---------7------------|-------7----7----|
--------0-----0-----|-----------------|------7---------------|-----------------|
-----0-----------0--|-----------------|----------------------|-----------------|
--------------------|-----------------|----------------------|--9--------------|
--3-----------------|--3----3----5----|---7------------------|-----------------|


  Q    E   E  E  E     Q    E  E  Q       Q    Q    Q       Q    E   E  E  E   
--7-----------------|------------------|--0--------------|-------0h--2--3--5--|
--7-----------------|--7----------0----|-------0----0----|-------0------0-----|
--------------8--9--|--8----8--8--L----|-------0----0----|-------0------0-----|
-------9--11--------|--9----9--9--L----|-----------------|--------------------|
--------------------|------------------|-----------------|--2-----------------|
--7-----------------|--7---------------|--0--------------|--------------------|


  Q    E  E  Q       Q    E  E  E   E     Q    E  E  Q       Q    Q    Q     
--7-------5--3----|--0----------0h--2--|--3-------5--3----|--2----0---------|
-------0-----0----|-------0--0---------|-------0-----0----|--0----0----4----|
-------0-----0----|-------0--0--0------|-------0-----0----|--2----2----2----|
------------------|--------------------|------------------|-----------------|
------------------|--2-----------------|------------------|--2--------------|
--0---------------|--------------------|--0---------------|-----------------|


                                         TP                                   
  Q    Q    Q       Q    E   E  E  E     Q    Q    Q       E  E  E  E  E  E   
--0--------------|--------------5--7--|--8--------------|-----7--5-----------|
-------0----0----|-------7h--8--0-----|------------5----|--------5--8--5--5--|
-------0----0----|-------0------0-----|-------5---------|--------5-----5-----|
-----------------|--------------------|-----------------|--------------------|
-----------------|--------------------|--0--------------|--0-----------------|
--0--------------|--0-----------------|-----------------|--------------------|


  TP        TP      TP        TP      TP                                   
  Q    Q    Q       Q    Q    Q       Q    Q    Q       E  E  E  E  E  E   
--2---------3----|--5--------------|--7--------------|-----5--3--2--0-----|
------------3----|------------3----|------------0----|--------0-----0--3--|
-------2---------|-------2----L----|-------0---------|--------0-----0-----|
--0--------------|--0--------------|-----------------|--------------------|
-----------------|-----------------|-----------------|--------------------|
-----------------|-----------------|--3--------------|--3-----------------|


  TP        TP      TP                                                  
  Q    Q    Q       Q    Q    Q       Q    Q    Q       Q    Q    Q     
--0---------2----|--3---------0----|--5----7----8----|--7----5----3----|
------------0----|------------0----|--5----5----5----|--5----5----5----|
-------0---------|-------0---------|--5----5----5----|--5----5----5----|
-----------------|-----------------|-----------------|-----------------|
--3--------------|--3--------------|--0--------------|--0--------------|
-----------------|-----------------|-----------------|-----------------|


  Q.     E  Q       Q    Q    Q       Q    Q    Q       Q    E  E  Q     
--2------2--2----|--2----3----5----|--7--------------|------------------|
---------0--0----|-----------------|-------0----0----|------------------|
---------2--2----|--2--------------|-------0----0----|-------2--2--2----|
-----------------|-----------------|-----------------|-------4--4--4----|
--2--------------|--2--------------|-----------------|------------------|
-----------------|-----------------|--0--------------|--2---------------|


                                        TP                                   
  Q    Q    Q       Q    E  E  E  E     Q    Q    Q       E  E  E  E  E  E   
-----------------|-------------5--7--|--8--------------|-----7--5-----------|
-------0----0----|-------5--5--5-----|------------5----|--------5--8--5--5--|
-------0----0----|-------4--4--4-----|-------5---------|--------5-----5-----|
-----------------|-------------------|-----------------|--------------------|
-----------------|-------------------|--0--------------|--0-----------------|
--3--------------|--4----------------|-----------------|--------------------|


  TP        TP      TP        TP      TP                                   
  Q    Q    Q       Q    Q    Q       Q    Q    Q       E  E  E  E  E  E   
--2---------3----|--5--------------|--7--------------|-----5--3--2--0-----|
------------3----|------------3----|------------0----|--------0-----0--3--|
-------2---------|-------2----L----|-------0---------|--------0-----0-----|
--0--------------|--0--------------|-----------------|--------------------|
-----------------|-----------------|-----------------|--------------------|
-----------------|-----------------|--3--------------|--3-----------------|


  TP        TP      TP                                                  
  Q    Q    Q       Q    Q    Q       Q    Q    Q       Q    Q    Q     
--0---------2----|--3---------0----|--5----7----8----|--7----5----3----|
------------0----|------------0----|--5----5----5----|--5----5----5----|
-------0---------|-------0---------|--5----5----5----|--5----5----5----|
-----------------|-----------------|-----------------|-----------------|
--3--------------|--3--------------|--0--------------|--0--------------|
-----------------|-----------------|-----------------|-----------------|


                              tr                                             
  Q.     E  Q       Q    Q    Q          Q    Q    Q       Q    Q    Q       
--2------2--2----|--2----5----3(5)----|--0--------------|------------------||
---------0--0----|--------------------|-------0----0----|-------0----0-----||
---------2--2----|--2-----------------|-------0----0----|-------0----0----*||
-----------------|--------------------|-----------------|-----------------*||
--2--------------|--2-----------------|-----------------|--2---------------||
-----------------|--------------------|--0--------------|------------------||


  Q    Q    Q       Q    Q    Q       Q    E   E  E  E     Q    E  E  Q     
-----------------|--0--------------|-------0h--2--3--5--|--7-------5--3----|
-------0----0----|-------0----0----|-------0------0-----|-------0-----0----|
-------0---------|-------0----0----|-------0------0-----|-------0-----0----|
-----------------|-----------------|--------------------|------------------|
--2--------------|-----------------|--2-----------------|------------------|
-----------------|--0--------------|--------------------|--0---------------|


  Q    Q    E   E     Q    E  E  Q       Q    Q    Q       Q    Q    Q     
--0---------0h--2--|--3-------5--3----|--2----0---------|--0--------------|
-------0----0------|-------0-----0----|--0----0----4----|-------0----0----|
-------0----0------|-------0-----0----|--2----2----2----|-------0----0----|
-------------------|------------------|-----------------|-----------------|
--2----------------|------------------|--2--------------|-----------------|
-------------------|--0---------------|-----------------|--0--------------|


  ^      
  Q      
--0----||
--0----||
--0----||
--2----||
--2----||
--0----||




Duration Legend
---------------
W - whole
H - half
Q - quarter
E - 8th
S - 16th
T - 32nd
X - 64th
. - note dotted
|-n-|  - n-tuplets


Tablature Legend
----------------
L - tied note
x - dead note
g - grace note
(n) - ghost note
> - accentuded note
NH - natural harmonic
AH - artificial harmonic
TH - tapped harmonic
SH - semi harmonic
PH - pitch harmonic
h - hammer on
p - pull off
b - bend
br - bendRelease
pb - preBend
pbr - preBendRelease
brb - bendReleaseBend
\n/ - tremolo bar dip
\n - tremolo bar dive
-/n - tremolo bar Release up
/n\ - tremolo bar inverted dip
/n - tremolo bar return
-\n - tremolo bar Release down
S - shift slide
s - legato slide
/ -  slide into from below or out of upwards
\ -  slide into from above or out of downwards
~ - vibrato
W - wide vibrato
tr - trill
TP - tremolo picking
T - tapping
S - slap
P - pop
< - fade in
^ - brush up
v - brush down
Login or Register to remove this ad.