Kokoro no Shiro (Solo) (No One But You) Guitar Tab

Submitted: Jul 19, 2017 by Ttegdap

5
Average: 5 (1 vote)
Download | Listen
Game: No One But You
Composer(s): Lemmonias, AnnEXE, Sebastien Skaf
Style: Arrangement, Fingerstyle

AutoScroll: Slow | Medium | Fast
Acoustic Guitar
      E  E  E  E  E  Q.        E  T  T  S E  E  E  Q.        E   Q.     H         
E||------7--5---------------|-----------------------------|----------------------|
B||------------7--5---------|--3--2h-3p-2----0--2--3------|--3S--5------L--------|
G||*-----------------7------|-------------2---------------|----------------------|
D||*--0---------------------|-----------------------------|----------------------|
A||-------------------------|--2--------------------------|--0-------------------|
E||-------------------------|-----------------------------|----------------------|


  E  H        Q.          E   E  E  E  E  E     E  E  E  E  E  E     E   E  E  E  E  E   
----------------------||---------0--2--------|--3-----2-----------|---------0--2--------|
--3--2--------3-------||--2h--3--3--3--3-----|--------3-----3-----|--2h--3--3--3-----3--|
---------------------*||------2-----------2--|-----2-----2-----2--|------2--------2-----|
---------------------*||--0------------------|--0-----------------|--0------------------|
----------------------||---------------------|--------------------|---------------------|
----------------------||---------------------|--------------------|---------------------|


  E  E  Q    Q         E  E  E  E  E  E     E  E  E  E  E  E     E  E  E  E  E  E   
--3-----2----3----|--3g5-----------------|--5-----3-----2-----|--------------------|
--------1----1----|-------------0--------|-----------0--------|--3-----------------|
-----2------------|----------0-----0-----|--------0-----0-----|-----------3--------|
--0---------------|-------0-----------0--|-----0-----------0--|--------3-----3-----|
------------------|----------------------|--------------------|-----5-----------5--|
------------------|----3-----------------|--3-----------------|--3-----------------|


  E   E  E  E  E  E     E   E  E  E  E  E     E  E  E  E  E  E     E   E  E  E  E  E   
---------------------|---------0--2--------|--3-----2-----------|---------0--2--------|
--3h--5--------------|--2h--3--3--3--3-----|--------3-----3-----|--2h--3--3--3--3-----|
------------3--------|------2-----------2--|-----2-----2-----2--|------2-----------2--|
---------3-----3-----|--0------------------|--0-----------------|--0------------------|
------5-----------5--|---------------------|--------------------|---------------------|
--3------------------|---------------------|--------------------|---------------------|


  E  E  Q    Q       E  E  E  E  E  E     E  E  E  E  E  E     E  E  E  E  E  E   
--7-----5---------|--2-----3-----2-----|--0-----2-----0-----|--------------------|
-------------8----|-----------0--------|-----------0--------|--3-----------------|
--------5----5----|--------0-----0-----|--------0-----0-----|-----------3--------|
-----7------------|-----0-----------0--|-----0-----------0--|--------3-----3-----|
--5---------------|--------------------|--------------------|-----5-----------5--|
------------------|--3-----------------|--3-----------------|--3-----------------|


  E   E  E  E  E  E     E   E  E  E  E  E     E  E  E  E  E  E     E  E  E  E  E  E   
---------------------|---------0--2--------|--3-----2-----3-----|--0-----------------|
--3h--5--------------|--2h--3--3--3--3-----|--------3-----------|-----------3--------|
------------3--------|------2-----------2--|-----2-----2-----2--|--------4-----4-----|
---------3-----3--0--|--0------------------|--0-----------0-----|-----4-----------4--|
------5--------------|---------------------|--------------------|--2-----------------|
--3------------------|---------------------|--------------------|--------------------|


  E  E  Q    Q       H        Q        H.             
------------------|-----------------|---------------||
--3----------2----|--L--------0h----|--2------------||
--------2----2----|--L--------------|---------------||
-----2-------2----|--L--------------|---------------||
--0----------0----|--L--------------|---------------||
------------------|-----------------|---------------||




Duration Legend
---------------
W - whole
H - half
Q - quarter
E - 8th
S - 16th
T - 32nd
X - 64th
. - note dotted
|-n-|  - n-tuplets


Tablature Legend
----------------
L - tied note
x - dead note
g - grace note
(n) - ghost note
> - accentuded note
NH - natural harmonic
AH - artificial harmonic
TH - tapped harmonic
SH - semi harmonic
PH - pitch harmonic
h - hammer on
p - pull off
b - bend
br - bendRelease
pb - preBend
pbr - preBendRelease
brb - bendReleaseBend
\n/ - tremolo bar dip
\n - tremolo bar dive
-/n - tremolo bar Release up
/n\ - tremolo bar inverted dip
/n - tremolo bar return
-\n - tremolo bar Release down
S - shift slide
s - legato slide
/ -  slide into from below or out of upwards
\ -  slide into from above or out of downwards
~ - vibrato
W - wide vibrato
tr - trill
TP - tremolo picking
T - tapping
S - slap
P - pop
< - fade in
^ - brush up
v - brush down
Login or Register to remove this ad.