Ads

Forest / Nature Area (Kirby & The Amazing Mirror) Bass/Guitar Tab

Submitted: Nov 08, 2008 by hslesperance (Last updated: Mar 30, 2014)

0
Download | Listen
Game: Kirby & The Amazing Mirror
Composer(s): Hironobu Inagaki, Atsuyoshi Isemura
Style: 2 or more instruments, Transcription
Series: Kirby

AutoScroll: Slow | Medium | Fast
Forest / Nature Area
Kirby & the Amazing Mirror
Composed by Hironobu Inagaki & Atsuyoshi Isemura
Tabbed by hslesperance
10/15/08

Guitar - Standard Tuning
Bass   - Drop B Tuning (BADG)

Guitar

e---6----------6--9--8----7-8---------------------------------
B------------7-----------------------9----------------9-------
G-------------------------------------------------------------
D-------------------------------------------------------------
A-------------------------------------------------------------
E-------------------------------------------------------------

e--------7-9---8-7----------------6----------6--9--8----7-8---
B---7-9------------------------------------7------------------
G-------------------------------------------------------------
D-------------------------------------------------------------
A-------------------------------------------------------------
E-------------------------------------------------------------

e--------------------7-----------------6----------------------
B---9---------------------9----6--7-9----7--------------------
G-------------------------------------------------------------
D-------------------------------------------------------------
A-------------------------------------------------------------
E-------------------------------------------------------------

e---11----14----13--11----------------------------------------
B----------------------14--12--14--------11--------------12---
G--------------------------------------------------13---------
D-------------------------------------------------------------
A-------------------------------------------------------------
E-------------------------------------------------------------

e--------------------------------------11--14--13--11---------
B---11------------------------------------------------14-12---
G---------13-11--10--11---------------------------------------
D-------------------------------------------------------------
A-------------------------------------------------------------
E-------------------------------------------------------------

e---11----13----14--------------------------------------------
B-------------------11---14-12----11--------------------------
G---------------------------------------13----11----10/13-----
D-------------------------------------------------------------
A-------------------------------------------------------------
E-------------------------------------------------------------

e-------------------------------------------------------------
B---11--11-11-11-11-11-12-12-12-14-14-14--11--11-11-11-11-11--
G-------------------------------------------------------------
D-------------------------------------------------------------
A-------------------------------------------------------------
E-------------------------------------------------------------

e-------------------------------------------------------------
B---12-12-12-9----11--11-11-11-11-11-12-12-12-14-14-14--------
G-------------------------------------------------------------
D-------------------------------------------------------------
A-------------------------------------------------------------
E-------------------------------------------------------------

e-------------------------------------------------------------
B---11--11-11-11-11-11-12-12-12-14-14-14--11--11-11-11-11-11--
G-------------------------------------------------------------
D-------------------------------------------------------------
A-------------------------------------------------------------
E-------------------------------------------------------------

e-------------------------------------------------------------
B---12-12-12-9------------------------------------------------
G-------------------------------------------------------------
D-------------------------------------------------------------
A-------------------------------------------------------------
E-------------------------------------------------------------

Bass

G-------------------------------------------------------------
D-------------------------------------------------------------
A-------------------------------------------------------------
B---7----7----7----7----2----2----2----2----6----6----9----9--

G-------------------------------------------------------------
D-------------------------------------------------------------
A-------------------------------------------------------------
B---7----7----7----7----7----7----7----7----2----2----2----2--

G-------------------------------------------------------------
D-------------------------------------------------------------
A-------------------------------------------------------------
B---6----6----9----9----7----7----7----7----0----0----2----2--

G-------------------------------------------------------------
D-------------------------------------------------------------
A---1----1----------------------------------------------------
B-------------4----4----9----9----11---11---4----4----4----4--

G-------------------------------------------------------------
D-------------------------------------------------------------
A--------------------------------------1----------------------
B---0----0----2----2----3----6----4---------0----0----0----0--

G-------------------------------------------------------------
D-------------------------------------------------------------
A-------------------------------------------------------------
B---2----2----2----2----7----7----7----7----7----7----7----7--

G-------------------------------------------------------------
D-------------------------------------------------------------
A-------------------------------------------------------------
B---7----7----7----7----7----7----7----7----------------------
Login or Register to remove this ad.