Gusty Garden Galaxy (Super Mario Galaxy) Guitar Tab

Submitted: Dec 02, 2007 by yoshistrings (Last updated: Dec 15, 2007)

4.142855
Average: 4.1 (14 votes)
Download | Listen
Game: Super Mario Galaxy
Composer(s): Koji Kondo, Mahito Yokota
Style: Transcription
Series: Mario

AutoScroll: Slow | Medium | Fast
Gusty Garden Galaxy Guitar Tab
Tabbed by: Yoshistrings

E------------------------------------------------------------------
a------------------------------------------------------------------
g------------------------------------------------------------------
d------------------------------------------------------------------
b----4---3-6-4--------------------6-5-8-6-4-3-1-3-1----------------
e--------------4--1-2-4-4-2-------------------------4--------------


E------------------------------------------------------------------
a------------------------------------------------------------------
g------------------------------------------------------------------
d----6----5-8-6-4-3-4----3-6-4-3-1-3----1-4-3-1--0-3-1--------1----
b------------------------------------------------------4-3--4------
e------------------------------------------------------------------


E------------------------------------------------------------------
a------------------------------------------------------------------
g------------------------------------------------------------------
d------------------------------------------------------------------
b----4---3-6-4--------------------6-5-8-6-4-3-1-3-1----------------
e--------------4--1-2-4-4-2-------------------------4--------------


E------------------------------------------------------------------
a------------------------------------------------------------------
g------------------------------------------------------------------
d----6----5-8-6-4-3-4----3-6-4-3-1-3----1-4-3-1--0-2-4------------
b------------------------------------------------------------------
e------------------------------------------------------------------


E------------------------------------------------------------------
a------------------------------------------------------------------
g------------------------------------------------------------------
d----4----0-4-7-9-7-7-6-------4----0-4-7-9-7-6---------------------
b------------------------------------------------------------------
e------------------------------------------------------------------


E------------------------------------------------------------------
a------------------------------------------------------------------
g----6---6-4-2-4-------------3---3---------------------------------
d-----------------2----------------6-4-6---------------------------
b-----------------------------------------4------------------------
e------------------------------------------------------------------


E------------------------------------------------------------------
a------------------------------------------------------------------
g------------------------------------------------------------------
d------4-8-4-8-11---8-10-11-13-------------------------------------
b----4-------------------------------------------------------------
e------------------------------------------------------------------


E------------------------------------------------------------------
a------------------------------------------------------------------
g----8-6---8-6---10-8--8-10-11-13--13-15-10--8-10-11---------------
d--------6-----6---------------------------------------------------
b------------------------------------------------------------------
e------------------------------------------------------------------


E------------------------------------------------------------------
a------------------------------------------------------------------
g----13-11-10--6-10-8----------------------------------------------
d------------------------------------------------------------------
b------------------------------------------------------------------
e------------------------------------------------------------------


E--------------------------8-6-4---4-6-7-6-4-1-2-4-5-4-5-7-9-------
a------------------------------------------------------------------
g------8-6---8-6---10-8--8-----------------------------------------
d----6-----6-----6-------------------------------------------------
b------------------------------------------------------------------
e------------------------------------------------------------------
Login or Register to remove this ad.

11 comments on Gusty Garden Galaxy

You made the notes upside

You made the notes upside down to how everyone does it on this site it should be e

oops...

oops...

that's okay though. You

that's okay though. You still play it the way it's normally read. Pay no attention to the letters.

i dont remember coz its been

i dont remember coz its been ages since i played coz ma remote battery died. anyway, isnt half the music all the same in this game? (P.S. Luigi beats bowzer in 5 days - how sad am i?!?)

I finished the game in 4

I finished the game in 4 hours!!!
hahahahahahahahahahahahahahahahah

ive sed it before, i'll say

ive sed it before, i'll say it again, thats not sad at all. and some people complain i completed only mario in a week...

wow, super mario galaxy tabs must be hard. [sarcasm]i'm really baffled by toy time galaxy, even though it seems so familiar[/sarcasm]

errr.. well, it IS basically

errr.. well, it IS basically the mario bros main theme so...

great

great

i finish the game in 3

i finish the game in 3 hours!!!!!!!!!!!!!!!!!!!!

This tune and game are

5

This tune and game are amazing!

you are awesome i was finding the tab simplified for hours

5

Awesome