Ads

Super Survivor (Dragon Ball Z: Budokai Tenkaichi 3) Guitar Tab

Submitted: Jun 21, 2008 by Sinergy

5
Average: 5 (6 votes)
Download | Listen
Game: Dragon Ball Z: Budokai Tenkaichi 3
Composer(s): Takanori Arima
Style: Transcription
Series: Dragon Ball

AutoScroll: Slow | Medium | Fast
dragon ball z budokai tenkaichi 3
super survivor
wii
tabbed by sinergy

Intro
e--------------------------------------------------------------------------
B--------------------------------------------------------------------------
G--5/7-77-77-55--8/10-1010-1010-55-----------------------------------------  x3
D--5/7-77-77-55--8/10-1010-1010-55-----------------------------------------
A--3/5-55-55-33--6/8--8-8--8-8--33-----------------------------------------
E--------------------------------------------------------------------------



the third time ends like this
e--------------------------------------------------------------------------
B--------------------------------------------------------------------------
G--5/7-77-77-55--33-3-333-3------------------------------------------------
D--5/7-77-77-55--33-3-333-3------------------------------------------------
A--3/5-55-55-33--11-1-111-1------------------------------------------------
E--------------------------------------------------------------------------



lead part(the fun part)

e-----8-6---------------------8-10---------------------------------------------------
B-/10-----10------------10---------10------------1010-10-1010-8-7-8--7-8--10-8-7-----
G--------------10-12-10----------------1212--10----------------------------------7---
D--------------------------------------1212--12--------------------------------------
A------------------------------------------------------------------------------------
E------------------------------------------------------------------------------------



e-----8-10----------8-10-12b13b12-10----10-----------------------8-8/10~~------------
B-/10------10---/10------------------13-------10~~--10---10-8-10---------------------
G------------------------------------------12----------7-----------------------------
D------------------------------------------------------------------------------------
A------------------------------------------------------------------------------------
E------------------------------------------------------------------------------------


the bend on this part is slow, listen to the song to get the feeling right
e----------------------------------------------------8-11b12b11--9~~-----------------
B---10--------10~---------10-----------10---------10---------------------------------
G-7----7----7------7----7----7\55~---7----7-----7------------------------------------
D--------10----------10----------------------10--------------------------------------
A------------------------------------------------------------------------------------
E------------------------------------------------------------------------------------



e------13p12-------------12-13p12---------12-13p12-----------------------------------
B------------15----13-15----------15---15----------15---15---------------------------
G----------------------------------------------------------14-12-12h14---------------
D------------------------------------------------------------------------------------
A--12\-------------------------------------------------------------------------------
E--12\-------------------------------------------------------------------------------



e-----------------------------------------12-13p12-------------12-13p12--------------
B--/15-15-15-13---------------------13-14-----------15----13-15---------15-----------
G---------------14-12-12h14---12/14--------------------------------------------------
D------------------------------------------------------------------------------------
A------------------------------------------------------------------------------------
E------------------------------------------------------------------------------------



e----12-13p12---------17-15-13-----17--13------------12b13b12------15--17~~~---------
B-15----------15---15-----------------------15--14------------15---------------------
G------------------------------------------------------------------------------------
D------------------------------------------------------------------------------------
A------------------------------------------------------------------------------------
E------------------------------------------------------------------------------------

repeat the whole thing again..

this is a pretty simple tab, i didnt tab all the vibrato and slides because people often
give the songs theyr own feeling so, just feel free to add them where they feel right

also feel free to submit corrections or sugestions and well thanks a lot

i hope you guys enjoy this
Login or Register to remove this ad.

3 comments on Super Survivor

Just Perfect ;)

Just Perfect ;)

absolutely perfect

5

absolutely perfect

super perfect,

super perfect,