Galactic Commander Battle (Pokémon Diamond & Pearl) Guitar Tab

Submitted: Mar 07, 2008 by Zelos (Last updated: Oct 04, 2009)

5
Average: 5 (5 votes)
Download | Listen
Game: Pokémon Diamond & Pearl
Composer(s): Junichi Masuda, Hitomi Sato
Style: 2 or more instruments, Transcription
Series: Pokemon

AutoScroll: Slow | Medium | Fast
Galactic Commander Battle      
~Pokemon Diamond/Pearl~
Composed by: Hitomi Sato and Junichi Masuda
Arranged by: Zelos
Difficulty: Medium (8th and some small shredding at the beginning)

BPM = 200 


Guitar I


     S S S S  S S S S S S  S S S S S S     S S S S S S  S S S S S S  S S S S  
E||----7-8-7-10-9-8-7-8-7-10-9-8-7-8-7-|--10-9-8-7-8-7-10-9-8-7-8-7-10-9-8-7-|
B||------------------------------------|-------------------------------------|
G||------------------------------------|-------------------------------------|
D||------------------------------------|-------------------------------------|
A||------------------------------------|-------------------------------------|
E||------------------------------------|-------------------------------------|


    S E  E.  S E  E.  Q       S E  E.  S E  E.  Q       S E  E.  S E  E.  Q     
|------------4-x------7----|-----------5-x------8----|-----------4-x------7----|
|---6-x--------------------|--6-x--------------------|--6-x--------------------|
|*-------------------------|-------------------------|-------------------------|
|*-------------------------|-------------------------|-------------------------|
|--------------------------|-------------------------|-------------------------|
|--------------------------|-------------------------|-------------------------|


  S E  E.  S E  E.  Q       S E  E.  S E  E.  Q       S E  E.  S E  E.  Q     
-----------5-x------8----|-------------------------|-------------------------|
--6-x--------------------|--------------------0----|--------------------1----|
-------------------------|-----------1-x-----------|-----------2-x-----------|
-------------------------|--3-x--------------------|--3-x--------------------|
-------------------------|-------------------------|-------------------------|
-------------------------|-------------------------|-------------------------|


  S E  E.  S E  E.  Q       S E  E.  S E  E.  Q       Q.     Q.     Q     
-------------------------|--------------------1----|--4------6------7----|
--------------------0----|-------------------------|---------------------|
-----------1-x-----------|-----------2-x-----------|---------------------|
--3-x--------------------|--3-x--------------------|---------------------|
-------------------------|-------------------------|---------------------|
-------------------------|-------------------------|---------------------|


  Q.     Q.     Q       Q    Q    Q    Q       E  E  E  E  E  E  E  E   
--6------4-----------|------------3----4----|--3--4--3--------------2--|
----------------6----|--4----6--------------|-----------6--4-----4-----|
---------------------|----------------------|-----------------5--------|
---------------------|----------------------|--------------------------|
---------------------|----------------------|--------------------------|
---------------------|----------------------|--------------------------|


  Q.     Q.     Q       Q.     Q.     Q       W                 
--1------3------1----|---------1-----------|--1----------------|
---------------------|--4-------------1----|-------------------|
---------------------|---------------------|-------------------|
---------------------|---------------------|-------------------|
---------------------|---------------------|-------------------|
---------------------|---------------------|-------------------|


  E  H.           S S    Q.     Q.     Q       Q.     Q.     Q     
------------------2-3-|--4------6------7----|--6------4-----------|
----------------------|---------------------|----------------6----|
----------------------|---------------------|---------------------|
----------------------|---------------------|---------------------|
----------------------|---------------------|---------------------|
----------------------|---------------------|---------------------|


  Q    Q    Q    Q       E  E  E  E  E  E  E  E     Q.     Q.     Q     
------------3----4----|--3--4--3--------------2--|--1------3------1----|
--4----6--------------|-----------6--4-----4-----|---------------------|
----------------------|-----------------5--------|---------------------|
----------------------|--------------------------|---------------------|
----------------------|--------------------------|---------------------|
----------------------|--------------------------|---------------------|


  Q.     Q.     Q       W                   W                 
---------1-----------|--1----------------|--L----------------|
--4-------------1----|-------------------|-------------------|
---------------------|-------------------|-------------------|
---------------------|-------------------|-------------------|
---------------------|-------------------|-------------------|
---------------------|-------------------|-------------------|


  H        E  E  E  E     Q.     Q    E  E  E     H        E  E  Q     
-----------------------|-----------------------|----------------------|
--4--------L--2--4--2--|--1------2-------------|--1--------L--0--1----|
-----------------------|--------------3--1--3--|----------------------|
-----------------------|-----------------------|----------------------|
-----------------------|-----------------------|----------------------|
-----------------------|-----------------------|----------------------|


  W                   H        E   E  E   E     Q.      Q    E  E  E   
--0----------------|--9--------L------9------|------------------------|
-------------------|--------------11-----11--|--9------11----9--8--9--|
-------------------|-------------------------|------------------------|
-------------------|-------------------------|------------------------|
-------------------|-------------------------|------------------------|
-------------------|-------------------------|------------------------|


  W                    W                   Q.      Q.     Q     
-------------------|--11----------------|----------------------|
--6----------------|--------------------|----------------------|
-------------------|--------------------|--8--------------8----|
-------------------|--------------------|---------10-----------|
-------------------|--------------------|----------------------|
-------------------|--------------------|----------------------|


   Q.     Q.     Q       Q.     Q.     Q       Q.     Q.     Q     
----------------------|---------------------|---------------------|
----------------------|----------------4----|---------1------2----|
--10------8------6----|--5------6-----------|--3------------------|
----------------------|---------------------|---------------------|
----------------------|---------------------|---------------------|
----------------------|---------------------|---------------------|


  Q.     Q.     Q       Q.     Q.     Q       Q.     Q.     Q     
---------------------|--1------------------|---------------------|
--4------1------4----|---------4------2----|--1------------------|
---------------------|---------------------|---------3------1----|
---------------------|---------------------|---------------------|
---------------------|---------------------|---------------------|
---------------------|---------------------|---------------------|


  Q.     Q.     Q       Q.     Q.     Q       Q.     Q.     Q     
---------------------|---------------------|--0------------------|
---------------------|--2------4------2----|---------4------3----|
--0------1------0----|---------------------|---------------------|
---------------------|---------------------|---------------------|
---------------------|---------------------|---------------------|
---------------------|---------------------|---------------------|


  Q.     Q.     Q       Q.     Q.     Q       S S S E  S Q    S S S E  S  
---------------------|--0------------------|--4-x-4-x---------4-x-4-x----|
--2------4------2----|---------4------3----|-----------------------------|
---------------------|---------------------|-------------1---------------|
---------------------|---------------------|-----------------------------|
---------------------|---------------------|-----------------------------|
---------------------|---------------------|-----------------------------|


  H        H           S S S E  S Q    S S S E  S    H        H         
--------------------|--4-x-4-x---------4-x-4-x----|--------------------|
--------------------|-----------------------------|--------------------|
-----------0--------|-------------1---------------|--4--------2--------|
--4-----------------|-----------------------------|--------------------|
--------------------|-----------------------------|--------------------|
--------------------|-----------------------------|--------------------|


  H.           E  T T T T    H.           E  T T T T  
--------------------------|--------------------------|
--------------------------|--------------------------|
--------------------------|--------------------------|
--------------------------|--------------------------|
--------------------------|--2------------L--2---2---|
--1------------L--1---1---|--------------------------|


  H.           E  T T T T    Q    S. E  T H           H        H         
--------------------------|------------------------|--------------------|
--------------------------|------------------------|--------------------|
--------------------------|------------------------|-----------1--------|
--2------------L--2---2---|--3----L----------------|--3-----------------|
--------------------------|------------------------|--------------------|
--------------------------|---------------1--------|--------------------|


  Q.     H        E     H        H           Q.     H        E     
---------------------|--------------------|----------------------||
--0------1--------L--|--------------------|--0------1--------L---||
---------------------|-----------1--------|---------------------*||
---------------------|--3-----------------|---------------------*||
---------------------|--------------------|----------------------||
---------------------|--------------------|----------------------||




Duration Legend
---------------
W - whole
H - half
Q - quarter
E - 8th
S - 16th
. - note dotted


Tablature Legend
----------------
L - tied note
x - dead note








----------------------------------------------------------------











Guitar II
Difficulty: Medium (With a part that's a bit harder)
BPM = 200


E||-------|-------||--------|-------|-------|-------|
B||-------|-------||--------|-------|-------|-------|
G||-------|-------||*-------|-------|-------|-------|
D||-------|-------||*-------|-------|-------|-------|
A||-------|-------||--------|-------|-------|-------|
E||-------|-------||--------|-------|-------|-------|


   S  E  E.   S  E  E.   Q        S  E  E.   S  E  E.   Q     
-------------16--x------19----|-------------17--x------20----|
--18--x-----------------------|--18--x-----------------------|
------------------------------|------------------------------|
------------------------------|------------------------------|
------------------------------|------------------------------|
------------------------------|------------------------------|


   S  E  E.   S  E  E.   Q        S  E  E.   S  E  E.   Q     
-------------16--x------19----|-------------17--x------20----|
--18--x-----------------------|--18--x-----------------------|
------------------------------|------------------------------|
------------------------------|------------------------------|
------------------------------|------------------------------|
------------------------------|------------------------------|


   H        H            Q.      H        E      H        H         
---------------------|-----------------------|---------------------|
---------------------|-----------------------|---------------------|
------------8--------|--11------10--------L--|------------8--------|
--10-----------------|-----------------------|--10-----------------|
---------------------|-----------------------|---------------------|
---------------------|-----------------------|---------------------|


   Q.      H        E      H        H            Q.      H        E   
-----------------------|---------------------|-----------------------|
-----------------------|---------------------|-----------------------|
--11------10--------L--|------------8--------|--11------10--------L--|
-----------------------|--10-----------------|-----------------------|
-----------------------|---------------------|-----------------------|
-----------------------|---------------------|-----------------------|


   H        H            Q.      H        E      H         H         
---------------------|-----------------------|------------11--------|
---------------------|-----------------------|--13------------------|
------------8--------|--11------10--------L--|----------------------|
--10-----------------|-----------------------|----------------------|
---------------------|-----------------------|----------------------|
---------------------|-----------------------|----------------------|


   Q.      H        E      H         H            Q.      H        E   
--14------13--------L--|------------11--------|--14------13--------L--|
-----------------------|--13------------------|-----------------------|
-----------------------|----------------------|-----------------------|
-----------------------|----------------------|-----------------------|
-----------------------|----------------------|-----------------------|
-----------------------|----------------------|-----------------------|


   H         H            Q.      H        E      H         H         
------------11--------|--14------13--------L--|------------11--------|
--13------------------|-----------------------|--13------------------|
----------------------|-----------------------|----------------------|
----------------------|-----------------------|----------------------|
----------------------|-----------------------|----------------------|
----------------------|-----------------------|----------------------|


   Q.      H        E     W                   W                 
--14------13--------L--|-------------------|-------------------|
-----------------------|-------------------|-------------------|
-----------------------|-------------------|-------------------|
-----------------------|-------------------|-------------------|
-----------------------|-------------------|-------------------|
-----------------------|-------------------|-------------------|


  W                   W                    H        E   E   E   E   
-------------------|-------------------|--13--------L--11--13--11--|
-------------------|-------------------|---------------------------|
-------------------|-------------------|---------------------------|
-------------------|-------------------|---------------------------|
-------------------|-------------------|---------------------------|
-------------------|-------------------|---------------------------|


   Q.      Q     E   E   E      H.           E.   S      W                 
----------11----------------|--------------------14h-|--15----------------|
--14------------14--13--14--|--11------------L-------|--------------------|
----------------------------|------------------------|--------------------|
----------------------------|------------------------|--------------------|
----------------------------|------------------------|--------------------|
----------------------------|------------------------|--------------------|


   W                   W                   W                 
--16----------------|--L----------------|--L----------------|
--------------------|-------------------|-------------------|
--------------------|-------------------|-------------------|
--------------------|-------------------|-------------------|
--------------------|-------------------|-------------------|
--------------------|-------------------|-------------------|


  W                   W                   W                   W                 
--L----------------|--L----------------|--L----------------|-------------------|
-------------------|-------------------|-------------------|--9----------------|
-------------------|-------------------|-------------------|-------------------|
-------------------|-------------------|-------------------|-------------------|
-------------------|-------------------|-------------------|-------------------|
-------------------|-------------------|-------------------|-------------------|


   H.            Q       E  E  E  E  E  E  E  E     E  E  E   E  E  E   E  E   
--11------------11----|--4--------6--------7-----|--9--0-----11--------12-----|
----------------------|-----2--------4--------0--|---------------7------------|
----------------------|--------1--------3--------|--------6---------8------9--|
----------------------|--------------------------|----------------------------|
----------------------|--------------------------|----------------------------|
----------------------|--------------------------|----------------------------|


  E  E  E   E  E  E   E  E      E   E   E   E   E   E   Q     
--9--------11--------12--0--|--14----------15----------17----|
-----7---------9------------|------11----------14------------|
--------6---------8---------|----------11----------12--------|
----------------------------|--------------------------------|
----------------------------|--------------------------------|
----------------------------|--------------------------------|


   S  S  S  E  Q    S  S  S  S  E  S    W                 
--16--x-16--x---------16--x-16--x----|-------------------|
-------------------------------------|-------------------|
-------------------------------------|-------------------|
-------------------------------------|-------------------|
-------------------------------------|-------------------|
-------------------------------------|-------------------|


   S  S  S  E  Q    S  S  S  S  E  S    W                 
--16--x-16--x---------16--x-16--x----|-------------------|
-------------------------------------|-------------------|
-------------------------------------|-------------------|
-------------------------------------|-------------------|
-------------------------------------|-------------------|
-------------------------------------|-------------------|


  E  E  E  E  E  E  E  E     E  E  E  E  E  E  E  E   
--------------------------|--------------------------|
--------------------------|--------------------------|
--1--1--1--1--1--1--1--1--|--1--1--1--1--1--1--1--1--|
--------------------------|--------------------------|
--------------------------|--------------------------|
--------------------------|--------------------------|


  E  E  E  E  E  E  E  E     E  E  E  E  E  E  E  E     H        H         
--------------------------|--------------------------|--------------------|
--------------------------|--------------------------|--------------------|
--1--1--1--1--1--1--1--1--|--1--1--1--1--1--1--1--1--|-----------1--------|
--------------------------|--------------------------|--3-----------------|
--------------------------|--------------------------|--------------------|
--------------------------|--------------------------|--------------------|


  Q.     H        E     H        H           Q.     H        E     
---------------------|--------------------|----------------------||
--0------1--------L--|--------------------|--0------1--------L---||
---------------------|-----------1--------|---------------------*||
---------------------|--3-----------------|---------------------*||
---------------------|--------------------|----------------------||
---------------------|--------------------|----------------------||



Duration Legend
---------------
W - whole
H - half
Q - quarter
E - 8th
S - 16th
. - note dotted


Tablature Legend
----------------
L - tied note
x - dead note
h - hammer on

Login or Register to remove this ad.

9 comments on Galactic Commander Battle

AWSOME!

5

AWSOME!

hi i have that pokemon game

hi i have that pokemon game wanna battle!

HOLY CRAP HOW IS ANYONE WHO

HOLY CRAP HOW IS ANYONE WHO IS WORSE THAT KURIKINTON FOXOR HERMAN LI GONNA PLAY THAT FIRST BIT.... methinks that in this case its easier to tab it than it is to play it... well done

Thank you, Zelos! You all

Thank you, Zelos! You all should be thanking me! I was the one who requested for this song weeks ago! And then Zelos answers and fulfills my request! I thank you from the bottom of my fiery heart (which is an Infernape's). YEAH! YOU ROCK ZELOS! YOU ROCK!! YOU ROCK!!!

Well Done... im impressed...

5

Well Done... im impressed... you have tabbed for two guitars and a bass. BRAVO!

Huh? The first bit is easier

Huh? The first bit is easier to play as you think, it's just some basic shredding. At least I can play it and I'm really no guitar god or something like that. ;)

Thanks for all the positive feedback.

dude kicka55 this song rocks

dude kicka55 this song rocks and the shredding part sounds awesome if played fast

ill kill you all on pokemon

ill kill you all on pokemon my friend code is 0173 2778 2028

awesome. a 4 pokemon, I'm

5

awesome. a 4 pokemon, I'm unbeaten, but it's brawl that counts >)