Login or Register to remove this ad.

Detective Gumshoe (Phoenix Wright: Ace Attorney) Guitar Tab

Submitted: Sep 30, 2007 by Zero (Last updated: Apr 28, 2012)

5
Average: 5 (6 votes)
Download | Listen
Game: Phoenix Wright: Ace Attorney
Composer(s): Naoto Tanaka, Masakazu Sugimori
Style: Transcription
Series: Phoenix Wright

Click here for a video example.

AutoScroll: Slow | Medium | Fast
So, here's Detective Gumshoe's theme from Phoenix Wright!

e---------------------------------------------------------------]
b---------------------------------------------------------------]
g---------------------------------------------------------------]
d-12-13----12-------10------12-13----12-------15-13-------------]
a-------------13-10---------------------13-10-------------------]
e---------------------------------------------------------------]

e---------------------------------------------------------------]
b---------------------------------------------------------------]
g---------------------------------------------------------------]
d-12-13----12-------10------12-13----12-------15-13---17-15-----]
a-------------13-10---------------------13-10-------------------]
e---------------------------------------------------------------]

Now the really cool part!

e---------------------------------------------------------------]  x2
b---------------------------------------------------------------]
g----------15----------------------13-12----12-13p12------------]
d-13-15-13----15-13----12-13-15-13-------13----------15---------]
a---------------------------------------------------------------]
e---------------------------------------------------------------]

e-------------------------------------------]
b-------------------------------------------]
g-------------------------------------------]
d-13-12-12-----13-12------------------------]
a---------15--------------------------------]
e-------------------------------------------]

Easy!
Login or Register to remove this ad.

8 comments on Detective Gumshoe

This works surprisingly well

This works surprisingly well if you convert the first section to power chords, and tremelo pick the second section with a ton of distortion. It's not better, but it works.

thanks, maybe I'll try that!

thanks, maybe I'll try that!

Jawesome! I'm very new to

Jawesome! I'm very new to guitar playing, but I'll make sure to at least kind-of manage some of this song by the end of the day. Unfortuneately (horrible typo, right?) I've got lots of other stuff that "has to be done".

As I at the time suck at

As I at the time suck at playing guitar, could some of you who are able to play this song more or less flawlessly film it and host it on youtube/upload it to rapidshare or similar? I'd love to see how you do this, so I know I'm not doing anything wrong.

Maybe sometime soon

Maybe sometime soon (hopefully)!

Hey I made a video of myself

Hey I made a video of myself playing it here: http://www.youtube.com/watch?v=cIJQOvApoMA

I think some parts of the tab were wrong at the end so I changed it around a bit.

1984

Use of any tablatures on this site without permission of the tabber is prohibited.I just cant stop reading this. Its so cool, so filled with information which i just didnt know. Im glad to see that people are in fact writing about this issue in such a smart way, showing us all various sides to it. Youre a great blogger. Please continue the good work. I cant wait to read whats next.

buddy343d said Use of any

buddy343d said

Use of any tablatures on this site without permission of the tabber is prohibited.I just cant stop reading this. Its so cool, so filled with information which i just didnt know. Im glad to see that people are in fact writing about this issue in such a smart way, showing us all various sides to it. Youre a great blogger. Please continue the good work. I cant wait to read whats next.

I banned the spammer, but instead of deleting their post, I decided to edit out the spam link and leave the rest. This is an insightful piece of commentary and I hope they continue the good work. I cant wait to read whats next.