Andy's Theme (Advance Wars: Dual Strike) Bass Tab

Submitted: Feb 23, 2008 by Zelos (Last updated: May 07, 2008)

5
Average: 5 (2 votes)
Download | Listen
Game: Advance Wars: Dual Strike
Composer(s): Yoshito Hirano
Style: Transcription

This song is also called Andy's Anthem

AutoScroll: Slow | Medium | Fast
Andy's Theme      
~Advance Wars: Dual Strike~
Composed by: Yoshito Hirano
Arranged by: Zelos
Difficulty: Medium (16th notes)                                   


Bass
BPM = 108  
Difficulty: Medium (16th notes)

     W                   W                     E.  S S S E  E  E  S E.   
G||-------------------|-------------------||-----------4----4--4--4-----|
D||-------------------|-------------------||*--2---2-2---2----------4---|
A||-------------------|-------------------||*---------------------------|
E||-------------------|-------------------||----------------------------|


  E.  S S S E  E  E  S E.     E.  S S S E  E  E  S  S E   
-----------------------9---|-----------------------11-0--|
----------7----7--7--7-----|----------9----9--9--9-------|
--5---5-5---5--------------|--7---7-7---7----------------|
---------------------------|-----------------------------|


  E.  S S S S S E  E  S E.     E.  S S S E  E  E  S E.   
--L---0-0-7-0-7-7--7--7-----|----------4----4--4--4-----|
------------------------7---|--2---2-2---2----------4---|
----------------------------|---------------------------|
----------------------------|---------------------------|


  E.  S S S E  E  E  S E.     E.  S S S E  E  E  S  S E   
-----------------------9---|-----------------------11-0--|
----------7----7--7--7-----|----------9----9--9--9-------|
--5---5-5---5--------------|--7---7-7---7----------------|
---------------------------|-----------------------------|


  E.  S S S S S E  E  S E.     E.  S S S E  E  E  S E.   
--L---0-0-7-0-7-7--7--7-----|----------4----------------|
------------------------7---|--2---2-2---2--2--2--2-2---|
----------------------------|---------------------------|
----------------------------|---------------------------|


  E.  S S S E  E  E   S E.     E.  S S S E  E  E  S E.   
----------9-----------------|----------4----------------|
--7---7-7---7--9--9--11-9---|--2---2-2---2--2--2--2-2---|
----------------------------|---------------------------|
----------------------------|---------------------------|


  E.  S S S E  E  E   S E.     E.  S S S E  E  E  S E.   
----------9-----------------|----------4----------------|
--7---7-7---7--9--9--11-9---|--2---2-2---2--2--2--2-2---|
----------------------------|---------------------------|
----------------------------|---------------------------|


  E.  S S S E  E  E   S E.     E.  S S S E  E  E  S E.   
----------9-----------------|----------4----------------|
--7---7-7---7--9--9--11-9---|--2---2-2---2--2--2--2-2---|
----------------------------|---------------------------|
----------------------------|---------------------------|


  E.  S S S E  E  E   S E.     E.  S S S E  E  E  S E.   
----------9-----------------|----------4----------------|
--7---7-7---7--9--9--11-9---|--2---2-2---2--2--2--2-2---|
----------------------------|---------------------------|
----------------------------|---------------------------|


  E.  S S S E  E  E   S E.     E.  S S S E  E  E  S E.   
----------9-----------------|----------4----------------|
--7---7-7---7--9--9--11-9---|--2---2-2---2--2--2--2-2---|
----------------------------|---------------------------|
----------------------------|---------------------------|


  E.  S S S E  E  E   S E.     E.  S S S E  E  E  S E.   
----------9-----------------|----------4----------------|
--7---7-7---7--9--9--11-9---|--2---2-2---2--2--2--2-2---|
----------------------------|---------------------------|
----------------------------|---------------------------|


  E.  S S S E  E  E   S E.     E.  S S S E  E  E  S E.   
----------9-----------------|----------4----------------|
--7---7-7---7--9--9--11-9---|--2---2-2---2--2--2--2-2---|
----------------------------|---------------------------|
----------------------------|---------------------------|


  E.  S S S E  E  E   S E.     E.  S S S E  E  E  S E.   
----------9-----------------|----------4----4--4--4-----|
--7---7-7---7--9--9--11-9---|--2---2-2---2----------4---|
----------------------------|---------------------------|
----------------------------|---------------------------|


  E.  S S S E  E  E  S E.     E.  S S S E  E  E  S  S E   
-----------------------9---|-----------------------11-0--|
----------7----7--7--7-----|----------9----9--9--9-------|
--5---5-5---5--------------|--7---7-7---7----------------|
---------------------------|-----------------------------|


  E.  S S S S S E  E  S E.     E.  S S S E  E  E  S E.   
--L---0-0-7-0-7-7--7--7-----|----------4----4--4--4-----|
------------------------7---|--2---2-2---2----------4---|
----------------------------|---------------------------|
----------------------------|---------------------------|


  E.  S S S E  E  E  S E.     E.  S S S E  E  E  S  S E   
-----------------------9---|-----------------------11-0--|
----------7----7--7--7-----|----------9----9--9--9-------|
--5---5-5---5--------------|--7---7-7---7----------------|
---------------------------|-----------------------------|


  E.  S S S S S E  E  S E.     
--L---0-0-7-0-7-7--7--7------||
------------------------7---*||
----------------------------*||
-----------------------------||




Duration Legend
---------------
W - whole
H - half
Q - quarter
E - 8th
S - 16th
. - note dotted


Tablature Legend
----------------
L - tied note
Login or Register to remove this ad.