Ads

Zora's Domain (Legend of Zelda: Ocarina of Time) Guitar Tab

Submitted: Nov 28, 2007 by Yamato (Last updated: Sep 26, 2009)

5
Average: 5 (6 votes)
Download | Listen
Game: Legend of Zelda: Ocarina of Time
Composer(s): Koji Kondo
Style: Transcription
Series: Legend of Zelda

AutoScroll: Slow | Medium | Fast
E||-----------5-2------------------------5-2-------------------0-3--0--------L-
B||---------3-------3---0-----L--3-0-3-0-------3---0-----L---1-----------------
G||-------4--------------------------------------------------------------------
D||----------------------------------------------------------------------------
A||----------------------------------------------------------------------------
E||----------------------------------------------------------------------------



 
--L-------------0------0-2-3-2-0---2--------L------5-2----
------0-1-0-1-3----1-3-------------------------0-3------0-
----2-----------------------------------------------------
----------------------------------------------------------
----------------------------------------------------------
----------------------------------------------------------


-----------7--------5-7-----------0--------L--
--3------------7--8-------7-------------------
------------------------------7---------------
----------------------------------------------
----------------------------------------------
----------------------------------------------


--L----12----L----------------------------------------------
---------------12-10----10-12--------------------------7----
---------------------12-------12---------------------7------
-----------------------------------12--------L-----9------7-
------------------------------------------------12----------
------------------------------------------------------------



--------------------------------------0-7------------L-
--0---7---0---7---0---7-----7--0-----------------------
----7-------7-------7-----7--------5-------------------
--------7-------7-------7------------------------------
-------------------------------------------------------
-------------------------------------------------------

--L--10--7-----------------------------------------------
-----------8-----8--------------------7------------------
--------------9----9-----11-9--11---9-9-7------------L---
----------------------10---------------------------------
---------------------------------------------------------
---------------------------------------------------------

---------2-5----2--------------------7--3-0--------L-
-----0-3----------3-------------0-3------------------
--L-----------------2----L---2-----------------------
-----------------------------------------------------
-----------------------------------------------------
-----------------------------------------------------

  
--L-7---0----------------------5-------5----5-----2--5---
------8---7---------0---0---------0-3-----0---0-3--------
------------7---------7----------------------------------
--------------7---7--------------------------------------
---------------------------------------------------------
---------------------------------------------------------


 
--4------0-4--0------0-4---0---3------0-3------0---0-3---
-------2-----------2----------------1------------1-------
-----3-----------3----------------2--------2-------------
---------------------------------------------------------
---------------------------------------------------------
---------------------------------------------------------


--L-2-------2----2---------2----5-------5----5-----2--5----
--------0-1----1-----0-1-3----------0-3-----0---0-3--------
------2------------2---------------------------------------
-----------------------------------------------------------
-----------------------------------------------------------
-----------------------------------------------------------

 
--4------0-4--0------0-4---0---3------0-3------0---0-3---
-------2-----------2----------------1------------1-------
-----3-----------3----------------2--------2-------------
---------------------------------------------------------
---------------------------------------------------------
---------------------------------------------------------

--L-2-------2----2---------2--------------5-2-----------
--------0-1----1-----0-1-3------------0-3-------3---0---
------2------------2------------------------------------
--------------------------------------------------------
--------------------------------------------------------
--------------------------------------------------------



-------------5-2-------------------0-3--0--------L-
--L--3-0-3-0-------3---0-----L---1-----------------
---------------------------------------------------
---------------------------------------------------
---------------------------------------------------
---------------------------------------------------

--L-------------0------0-2-3-2-0---2--------L------5-2----
------0-1-0-1-3----1-3-------------------------0-3------0-
----2-----------------------------------------------------
----------------------------------------------------------
----------------------------------------------------------
----------------------------------------------------------


-----------7--------5-7-----------0--------L--
--3------------7--8-------7-------------------
------------------------------7---------------
----------------------------------------------
----------------------------------------------
----------------------------------------------



--L----12----L----------------------------------------------
---------------12-10----10-12--------------------------7----
---------------------12-------12---------------------7------
-----------------------------------12--------L-----9------7-
-----------------------------------------------12-----------
------------------------------------------------------------


--------------------------------------0-7------------L-
--0---7---0---7---0---7-----7--0-----------------------
----7-------7-------7-----7--------5-------------------
--------7-------7-------7------------------------------
-------------------------------------------------------
-------------------------------------------------------


--L--10--7-----------------------------------------------
-----------8-----8--------------------7------------------
--------------9----9-----11-9--11---9-9-7------------L---
----------------------10---------------------------------
---------------------------------------------------------
---------------------------------------------------------

---------2-5----2--------------------7--3-0--------L-
-----0-3----------3-------------0-3------------------
--L-----------------2----L---2-----------------------
-----------------------------------------------------
-----------------------------------------------------
-----------------------------------------------------


  
--L-7---0----------------------5-------5----5-----2--5---
------8---7---------0---0---------0-3-----0---0-3--------
------------7---------7----------------------------------
--------------7---7--------------------------------------
---------------------------------------------------------
---------------------------------------------------------


--4------0-4--0------0-4---0---3------0-3------0---0-3---
-------2-----------2----------------1------------1-------
-----3-----------3----------------2--------2-------------
---------------------------------------------------------
---------------------------------------------------------
---------------------------------------------------------


--L-2-------2----2---------2-----5-------5----5-----2--5---
--------0-1----1-----0-1-3----------0-3-----0---0-3--------
------2------------2---------------------------------------
-----------------------------------------------------------
-----------------------------------------------------------
-----------------------------------------------------------

  
--4------0-4--0------0-4---0---3------0-3------0---0-3---
-------2-----------2----------------1------------1-------
-----3-----------3----------------2--------2-------------
---------------------------------------------------------
---------------------------------------------------------
---------------------------------------------------------



--L-2-------2----2---------2---||
--------0-1----1-----0-1-3-----||
------2------------2-----------||
-------------------------------||
-------------------------------||
-------------------------------||

L=Tied Note
Login or Register to remove this ad.

3 comments on Zora's Domain

well, i'm neutral about

well, i'm neutral about this...

well, this sound is good and

well, this sound is good and the song is great

Intro

In the game, the intro bit played before notes covered in this tab goes like this:

E||---7---------------5---------------3---------------------2--------------
B||-----8---8-----------6---6-----------4---4--------------3---------------
G||-------7---7-----------5---5-----------3---3-----------2----------------
D||-------------9---------------7---------------5--------0-----------------
A||---------------10--------------8---------------6------------------------
E||------------------------------------------------------------------------

You can lightly and repeatedly strum the final chord if you want, as they repeat that note a few times in the game, or you can just sweep-strum it once. After this intro, the rest of the tab is spot on. Good job! This has always been one of my favorites.