Ads

Lost Woods (Legend of Zelda: Ocarina of Time) Guitar Tab

Submitted: Sep 30, 2007 by archard

4.4
Average: 4.4 (65 votes)
Download | Listen
Game: Legend of Zelda: Ocarina of Time
Composer(s): Koji Kondo
Style: Transcription
Series: Legend of Zelda

AutoScroll: Slow | Medium | Fast
Lost Woods
The Legend of Zelda: ocarina of Time
Composed by Koji Kondo


7/15/06

e--------------------0------------------------
B----------------------3---0-1-0--------------
G----2-4---2-4---2-4-------------0---------0--
D--3-----3-----3-------------------2---0-2---2
A---------------------------------------------
E---------------------------------------------

e--------------------0---------0--------------
B----------------------3---0-1---0-----0------
G----2-4---2-4---2-4---------------0-----0----
D--3-----3-----3---------------------------0-2
A---------------------------------------------
E---------------------------------------------

e------------------------0-1-3-5-7-8-10-12--------------------
B------------0-1-0-----3-------------------------------0-1-0--
G--------0-2---------------------------------------0-2--------
D--0-2-3-----------2-------------------------0-2-3-----------2
A-------------------------------------------------------------
E-------------------------------------------------------------

e--1-0-5-3-7-5-8-7-10-8-12-10-13-12---7-8-5-7
B--------------------------------------------
G--------------------------------------------
D--------------------------------------------
A--------------------------------------------
E--------------------------------------------
Login or Register to remove this ad.

44 comments on Lost Woods

Sounds okay few missing

Sounds okay few missing notes tho on the Gstings

good job archard

good job archard

its a good tab but shouldnt

its a good tab but shouldnt it be renamed saria's song or something

eh loco, aguante lo pistol

eh loco, aguante lo pistol viejaa
zelda ta re wena, ele rompo todo el culo
eh guachoo
FLEMA VIVE

The name is fine. sarias

The name is fine. sarias song and Lost Woods are different. They are just both very simialar.(cause they're both foresty-ish and stuff) They ar simialar on purpose though. nice song by the way .
thx

wrong

it is actually called sarias song, the lost woods theme is just an extended version of the song, bcuz if u remember you have to follow the music to get to saria in the lost woods

Nobody... cares...

...

e-------------------------0--

e-------------------------0-------------0-----------------
B---------------------------3----0-1-----1------1-------
G----2-4---2-4---2-4----------------------0-------0-----
D--3-----3-----3----------------------------------------------0---2
A-----------------------------------------------------------
E-------------------------------------------------------------

I could probably come up

I could probably come up with one that has the background to it . . .

This is one of my most

This is one of my most frequently played songs on my guitar. It is exactly the same tune from the lost woods and I love playing it. Great job on the tabs! 5 stars

sounds great, love playin it

sounds great, love playin it thanks for the tabs

hdsashu i dont like the way

hdsashu i dont like the way your mini tab sounds but yeah i wish there was a note that instead of the e there was a more deeper note...

[...] Orcina of time) -

[...] Orcina of time) - Today, 08:54 PM Learn it here: its very accurate and very easy. Lost Woods Guitar Tab | Game Tabs vbmenu_register("fc493504", true); [...]

I FING LOVE THIS

I FING LOVE THIS SONG!!!!!!!!!!!!!!!!!!!!!!!!!!!!!!!!!!!!!!!!!

great tab man, i play this

great tab man, i play this all the time now, but i did have to tweak it a little ;)

This is so aweesome! i think

This is so aweesome! i think there is nothing wrong with it. It's the most song i have played on my guitar since i found it here! yay Thankyou!

low - high difference is too

low - high difference is too much, so it doesnt sound right to me ;)

ok,

ok, wrong.

E---------------------------------------------
B------------0-1-0-------------------0-1-3-5--
G--------0-2----------------------0-2---------
D--0-2-3-----------2---------0-2-3------------
A---------------------------------------------
e---------------------------------------------

try that
and, the ending is completely wrong

Nope....

Actually, you're wrong. There are two parts right here. Click listen at the top right, and you'll hear it. He tabbed the high part, not the low

This ending sounds better to

This ending sounds better to me:

e--------------------------------------------
B------------0-1-0-------------------0-1-3-5-
G--------0-2----------------------0-2--------
D--0-2-3-----------2---------0-2-3-----------
A--------------------------------------------
E--------------------------------------------

e-------------------
B-----------0-1-0---
G-------0-2---------
D-0-2-3-----------2-
A-------------------
E-------------------

e-------------------------------------
B-----------------0---1-0-3-1-5-6-3-5-
G---------0---2-0---2-----------------
D-2-0-3-2---3-------------------------
A-------------------------------------
E-------------------------------------

ah i think this is part much

ah i think this is part much better and easier to play. thanks!

Same...

Again, this is just the lower part. It's not wrong, he just chose not to tab the low parts.

Hehe, I remember the lost

Hehe, I remember the lost woods- especially finding Saria. I quit ocarina ot time after i messed up on the water temple tho :) I'm happy that at least 1 place has awesome zelda tabs, but guys- this is a request- for twilight princess, get the snowpeak ruins music! thx

I was taught to do it this

I was taught to do it this way

e/--------------------------------------------
b/---------------------5-3--------------------
g/---2-4----2-4----2-4-----4-5-4--------------
d/-3------3------3---------------5-2----2-5-2-
a/------------------------------------5-------
E/--------------------------------------------

im not sure if its completely correct, but it sounds good.... ish

It's the exact same

Illia, archard's tab and what you posted are exactly the same. With the exception of g, the 5th fret on a string is the same as 0 on the string above it. For g, it's the 4th fret.

srry about that, hopefully u

srry about that, hopefully u can figure out wut goes were...

Yea, I think Rembrandt has

Yea, I think Rembrandt has it, it sounds a lot nicer when it's all on the same key, although I think in the actual song it does actually go up and down octaves.

this isnt that bad but parts

3

this isnt that bad but parts of it are way to high fo the actual song

sounds very good! ^^

5

sounds very good! ^^

Im sorry but to me it still

Im sorry but to me it still sounds a little to high.

This sounds. Horrible. I'm

This sounds. Horrible. I'm sorry

I absolutely love the

5

I absolutely love the ocarina of time, and this was my favorite theme to it!!!! Thank you so much for this tab it sounds awesome!!!

Sairas

Sairas song

E----5-7---5-7--5-7-/12-10--7-8-7-------------|
B--6-----6-----6------------------8-5--5-8-5--|
G-------------------------------------7-------|
D---------------------------------------------|
A---------------------------------------------|
E---------------------------------------------|

E----5-7--5-7--5-7-/12-10-----12--7----7-------|
B--6-----6----6----------12-13------8----8---5-|
G------------------------------------------7---|
D----------------------------------------------|
A----------------------------------------------|
E----------------------------------------------|
 

E-----------------------|--------------------------|
B-----------------------|--------------------------|
G-----------------------|--------------------------|
D-0-2-3--5-7-9--10-9-2--|--0-2-3--5-7-9--10-12-14--|
A-----------------------|--------------------------|
E-----------------------|--------------------------|

E--------------------------|
B--------------------------|
G--------------------------|
D-0-2-3--5-7-9--10-9-2-----|
A--------------------------|
E--------------------------|

E---------------------------------|
B---------------------------------|
G---------------------------------|
D--2-0-3-2-5-3-7-5-9-7-10-9-12-10-|
A---------------------------------|
E---------------------------------|

E-------------|
B-------------|
G-------------|
D14-15--12-14-|
A-------------|
E-------------|

Sairas song=)

i think somethings wrong on

i think somethings wrong on the last part... but the rest is ok! ^^.

hey, just so you know, the

5

hey, just so you know, the tabs you have are great. However, when I play, i find it easier to use open b notes for the beginning instead of the 4th fret. It is the same note if tuned properly and it is easier to play in my opinion.

they are both the same, although the open string will sometimes sound a bit off. it is easier for beginners. I should know, as this is the first song I ever learned for the guitar, except I learned it from sheet music.

I think this is the best way

I think this is the best way to play it. But i did not transcribe this. (it is hard to read)

|---------------|-----------------|----------------|---------------|
|---------------|-----------------|----------------|---------------|
|---------------|-------9-7-------|----------------|---------------|
|---7-9----7-9--|---7-9------9-10-|-9--------------|---------------|
|-8------8------|-8---------------|---10-7---------|-7-10-7--------|
|---------------|-----------------|-------------10-|---------------|


|---------------|-----------------|-----------------|----------------|
|---------------|-----------------|-----------------|----------------|
|---------------|-------9-7-------|-9---------------|----------------|
|---7-9----7-9--|---7-9------9-10-|---10---------10-|----------------|
|-8------8------|-8---------------|------10---------|-10----7--------|
|---------------|-----------------|-----------------|----10----------|

|-----------------|---------------|-----------------|---------------|
|-----------------|---------------|-----------------|---------------|
|-----------------|---------------|-----------------|----7-9--------|
|------------7-9--|-10-9----------|------------7-9--|-10------------|
|----7-8--10------|------7--------|----7-8--10------|---------------|
|-10--------------|---------------|-10--------------|---------------|

|-----------------|---------------|
|-----------------|---------------|
|-----------------|---------------|
|------------7-9--|-10-9----------|
|----7-8--10------|------7--------|
|-10--------------|---------------|

|--------------------|----------------------|------*|
|--------------------|----------------------|------*|
|--------------------|----------7----9h10-7-|-9----*|
|---------------7----|-9-7-10-9---10--------|------*|
|-7----8-7-10-8---10-|----------------------|------*|
|---10---------------|----------------------|------*|

Umm I really just want to

3

Umm I really just want to learn the second part with out it sounding gay

IS THIS TAB RIGHT OR SOUND

IS THIS TAB RIGHT OR SOUND RIGHT BEACAUSE I DONT THINK THE LAST TO PARTS OF THE TAB IS

E|------------------------------------------|
B|-------------------5-3--------------------|
G|---2-4---2-4---2-4-----4-5-4--------------|
D|3------3-----3---------------5-2R---2-5-2R|
A|----------------------------------5-------|
E|------------------------------------------|

E|------------------------------------------|
B|-------------------5-3-----5--------------|
G|---2-4---2-4---2-4-----4-5---5----5-------|
D|3------3-----3-----------------5R---5---2R|
A|-------------------------------------5----|
E|------------------------------------------|

E|---------------------------------------------------------|
B|----------------------------------3-5R-------------------|
G|--------2-4-5-4-------------2-4-5-------------2-4-5-4----|
D|--2-3-5---------2R-----2-3-5-------------2-3-5---------2R|
A|5-------------------5-----------------5------------------|
E|---------------------------------------------------------|

E|------------------------------------|
B|------------------------3---5-6-3-5R|
G|------------2---4-2-5-4---5---------|
D|2---3-2-5-3---5---------------------|
A|--5---------------------------------|
E|------------------------------------|

e-----------------------0-1-3

e-----------------------0-1-3-5-7-8-10-12-------------------
B-----------0-1-0-----3-------------------------------0-1-0-
G-------0-2---------------------------------------0-2-------
D-0-2-3-----------2------------------------0-2-3-----------2
A-----------------------------------------------------------
E-----------------------------------------------------------

Instead, I found it sounds better played like this

e---------------------------------------------------------..
B----------------0-1-0---------------------0---1-3-5------..
G----------0-2-----------------------0-2------------------..
D-0-2-3-----------------2---0-2-3-----------------------0-2.
A---------------------------------------------------------..
E---------------------------------------------------------..

the song is very good but I

5

the song is very good but I cant play it so fast xD
5 stars *****

very good except the ending

5

very good except the ending is diffecult xD
5 stars

i agree

i agree with rembrant his ending is better but good job either way

a realy easy and great tab

a realy easy and great tab

Ending

Instead of having

e|-7-8-5-7-|

at the end, try replacing it with

G|-9-10-7-9-|