Ads

Lakeside Laboratory (Legend of Zelda: Ocarina of Time) Guitar Tab

Submitted: Sep 30, 2007 by archard

5
Average: 5 (6 votes)
Download | Listen
Game: Legend of Zelda: Ocarina of Time
Composer(s): Koji Kondo
Style: Transcription
Series: Legend of Zelda

AutoScroll: Slow | Medium | Fast
Lakeside Laboratory
The Legend of Zelda: Ocarina of Time
Composed by Koji Kondo

2/26/07

e---------------------------
B------------7-----7--------
G------7-7-8-----8-----8-7--
D--5------------------------
A---------------------------
E---------------------------

e---------------------------------
B----------7-----7---7-----7------
G------7-8-----8---8-----8---8-7--
D--5------------------------------
A---------------------------------
E---------------------------------

e-----6-6-5-5------------------
B-------------8-8-----4h7p4h7--
G------------------------------
D--5---------------------------
A------------------------------
E------------------------------

e----5h6-6-5-5----------------
B--------------8-----4h7p4h7--
G-----------------------------
D--5--------------------------
A-----------------------------
E-----------------------------

e--------------------------------
B------7--7------7---------------
G------------8------7-------8-7--
D--5-----------------------------
A--------------------------------
E--------------------------------

e--------------------------
B------7--7--------7-------
G------------8--8-----8p7--
D--5-----------------------
A--------------------------
E--------------------------

e----------------------
B----------------------
G-----------------7----
D--5----------7h8---5--
A----------------------
E----------------------

Repeat
Login or Register to remove this ad.

3 comments on Lakeside Laboratory

I love this song, great job!

I love this song, great job!

yes!! yes sooo good i use a

5

yes!!
yes sooo good
i use a modifyed version of this tab whenever someone mentions something arabic
or i play it incessantally when were playing assassins creed

Re: Lakeside Laboratory

it good