Login or Register to remove this ad.

Kaepora Gaebora (Legend of Zelda: Ocarina of Time) Guitar Tab

Submitted: Sep 30, 2007 by archard (Last updated: Sep 30, 2007)

4.703705
Average: 4.7 (27 votes)
Download | Listen
Game: Legend of Zelda: Ocarina of Time
Composer(s): Koji Kondo
Style: Transcription
Series: Legend of Zelda

This song is also called Owl Music

AutoScroll: Slow | Medium | Fast
Kaepora Gaebora
The Legend of Zelda: Ocarina of Time
Composed by Koji Kondo
Tabbed by Richard Schaefer ([email protected])
8/4/06

e-------------------------------------------------
B------------------------------1------------------
G----------------------0-----0---3-1-0------------
D----------------0-1-3-----------------3-1-0------
A--3---2-3---2-3---------3-------------------3-2--
E------------------------------------------------3

e----------------------------------------------
B----------------------------------------------
G----------------------0-------1-0-------------
D----------------0-1-3-------3-----3-1-0-0-----
A--3---2-3---2-3---------3------------------3-3
E----------------------------------------------

e--------------------------------------------
B-----------------4-3-1---1------------------
G--3--0-1-3-0-1-3-------3---1-3-1-0-1--------
D--------------------------------------------
A--------------------------------------------
E--------------------------------------------

e-------------------------------------
B------------------3-1----------------
G----------------------3-1-1-3-1-0---0
D--3---0-1-3-0-1-3-----------------3--
A-------------------------------------
E-------------------------------------

e--------------------------------------------
B-----------------4-3-1---1------------------
G--3--0-1-3-0-1-3-------3---1-3-1-0-1--------
D--------------------------------------------
A--------------------------------------------
E--------------------------------------------

e--------------------------------------
B------------------3-1-----------------
G----------------------3-1-0-----------
D--3---0-1-3-0-1-3-----------3-1-0--1-1
A--------------------------------------
E--------------------------------------
Login or Register to remove this ad.

18 comments on Kaepora Gaebora

Damn nice song, perfectly

Damn nice song, perfectly tabbed aswell... Only thing about is that the owl anoys my ass off... xD

First- good Job

First- good Job Richard!!
Second- Yes He is T__T

e----------------------------

e--------------------------------------------
B-----------------4-3-1---1------------------
G--3--0-1-3-0-1-3-------3---1-3-1-0-1--------
D--------------------------------------------
A--------------------------------------------
E--------------------------------------------

is wrong, it has to be

e--------------------------------------------
B-----------------4-3-1---1------------------
G--3--0-1-3-0-1-3-------3---1-3-1-0----------
D------------------------------------3-------
A--------------------------------------------
E--------------------------------------------

in the 3th and 5th part the

in the 3th and 5th part the last thing has to be a 3 on d and no 1 on g

e----------------------------

e---------------------------------------
B-----------------4-3-1---1-------------
G--3--0-1-3-0-1-3-------3---1-3-1-0-----
D-------------------------------------3-
A---------------------------------------
E---------------------------------------

Sorry I disagree with you

Sorry I disagree with you dude.

BTW, I fixed your tabs for you. Remember to put code tags around them to make them format correctly.

if you listen to the midi

if you listen to the midi the first two parts of your tab are played twice, other than that it perfect

Again, I'm amazed by the

Again, I'm amazed by the tabs. Good job! Love playing these!

this tab is great try

3

this tab is great try playing it on a classical guitar it sounds way cool

excellent, excellent

5

excellent, excellent

Great!

Amazing tab. But the owl freaks me out a lot!

I agree with Marc, it does go

I agree with Marc, it does go lower there. Other than that, perfect tab! Another great one!

Great!!

5

Just perfect!

Just as I remember!

5

This is really good!!! Sounds just like the game

Perfect. Thats all there is

5

Perfect. Thats all there is to say.

Awesome

5

Very good job, it sounds great!!!

The hero of Time is pleased.

The Hero of Time is pleased. -__-

-Yes

5

I would like to hear this again