Gerudo Valley (Legend of Zelda: Ocarina of Time) Guitar Tab

Submitted: Sep 30, 2007 by Calebelijah (Last updated: Sep 20, 2009)

4.615385
Average: 4.6 (52 votes)
Download | Listen
Game: Legend of Zelda: Ocarina of Time
Composer(s): Koji Kondo
Style: 2 or more instruments, Transcription
Series: Legend of Zelda

Click here for a video example.

AutoScroll: Slow | Medium | Fast
Melody2
     W                   W                   W
E||-------------------|-------------------|-------------------|
B||-------------------|-------------------|-------------------|
G||-------------------|-------------------|-------------------|
D||-------------------|-------------------|-------------------|
A||-------------------|-------------------|-------------------|
E||-------------------|-------------------|-------------------|

  W                   W                   W                   W
-------------------|-------------------|-------------------|-------------------|
-------------------|-------------------|-------------------|-------------------|
-------------------|-------------------|-------------------|-------------------|
-------------------|-------------------|-------------------|-------------------|
-------------------|-------------------|-------------------|-------------------|
-------------------|-------------------|-------------------|-------------------|

  S S S S E  S S S S Q    S S    S S S S E  S S S S Q    S S
------2-4-5------2-4-5----L---|------2-4-5------2-4-5----L---|
----2----------2--------------|----3----------3--------------|
------------------------------|------------------------------|
------------------------------|------------------------------|
------------------------------|------------------------------|
------------------------------|------------------------------|

  S S S S E  S S S S Q    S S    S S S S H        E.  S
------0-2-4------0-2-4----L---|----2-4-2-1--------L-----|
----0----------0--------------|-------------------------|
------------------------------|-------------------------|
------------------------------|-------------------------|
------------------------------|-------------------------|
------------------------------|-------------------------|

  S S S S E  S S S S Q    S S    S S S S E  S S S S Q    S S
------2-4-5------2-4-5----L---|------2-4-5------2-4-5----L---|
----2----------2--------------|----3----------3--------------|
------------------------------|------------------------------|
------------------------------|------------------------------|
------------------------------|------------------------------|
------------------------------|------------------------------|

  S S S S E  S S S S Q    S S    S S S S H        E.  S      W
------0-2-4------0-2-4----L---|----5-7-5-4--------L-----||--------------------|
----0----------0--------------|-------------------------||--------------------|
------------------------------|-------------------------||*-------------------|
------------------------------|-------------------------||*-------------------|
------------------------------|-------------------------||--------------------|
------------------------------|-------------------------||--------------------|

  W                   W                   W                   W
-------------------|-------------------|-------------------|-------------------|
-------------------|-------------------|-------------------|-------------------|
-------------------|-------------------|-------------------|-------------------|
-------------------|-------------------|-------------------|-------------------|
-------------------|-------------------|-------------------|-------------------|
-------------------|-------------------|-------------------|-------------------|

  W                   W                   W                   W
-------------------|-------------------|-------------------|-------------------|
-------------------|-------------------|-------------------|-------------------|
-------------------|-------------------|-------------------|-------------------|
-------------------|-------------------|-------------------|-------------------|
-------------------|-------------------|-------------------|-------------------|
-------------------|-------------------|-------------------|-------------------|

  W                   W                   W                   W
-------------------|-------------------|-------------------|-------------------|
-------------------|-------------------|-------------------|-------------------|
-------------------|-------------------|-------------------|-------------------|
-------------------|-------------------|-------------------|-------------------|
-------------------|-------------------|-------------------|-------------------|
-------------------|-------------------|-------------------|-------------------|

  W                   W                   W                   W
-------------------|-------------------|-------------------|-------------------|
-------------------|-------------------|-------------------|-------------------|
-------------------|-------------------|-------------------|-------------------|
-------------------|-------------------|-------------------|-------------------|
-------------------|-------------------|-------------------|-------------------|
-------------------|-------------------|-------------------|-------------------|

  W                   W                   W                   W
-------------------|-------------------|-------------------|-------------------|
-------------------|-------------------|-------------------|-------------------|
-------------------|-------------------|-------------------|-------------------|
-------------------|-------------------|-------------------|-------------------|
-------------------|-------------------|-------------------|-------------------|
-------------------|-------------------|-------------------|-------------------|

  W                   W                   W                   W
-------------------|-------------------|-------------------|-------------------|
-------------------|-------------------|-------------------|-------------------|
-------------------|-------------------|-------------------|-------------------|
-------------------|-------------------|-------------------|-------------------|
-------------------|-------------------|-------------------|-------------------|
-------------------|-------------------|-------------------|-------------------|

  W                   W                   W
-------------------|-------------------|---------------------||
-------------------|-------------------|---------------------||
-------------------|-------------------|-------------------*-||
-------------------|-------------------|-------------------*-||
-------------------|-------------------|---------------------||
-------------------|-------------------|---------------------||

Duration Legend
---------------
W - whole
H - half
Q - quarter
E - 8th
S - 16th
T - 32nd
X - 64th
. - note dotted
|-n-|  - n-tuplets





Harmony
     W                   W                   W
E||-------------------|-------------------|-------------------|
B||-------------------|-------------------|-------------------|
G||-------------------|-------------------|-------------------|
D||-------------------|-------------------|-------------------|
A||-------------------|-------------------|-------------------|
E||-------------------|-------------------|-------------------|

  W                   W                   W                   W
-------------------|-------------------|-------------------|-------------------|
-------------------|-------------------|-------------------|-------------------|
-------------------|-------------------|-------------------|-------------------|
-------------------|-------------------|-------------------|-------------------|
-------------------|-------------------|-------------------|-------------------|
-------------------|-------------------|-------------------|-------------------|

  W                   W                   W                   W
-------------------|-------------------|-------------------|-------------------|
-------------------|-------------------|-------------------|-------------------|
-------------------|-------------------|-------------------|-------------------|
-------------------|-------------------|-------------------|-------------------|
-------------------|-------------------|-------------------|-------------------|
-------------------|-------------------|-------------------|-------------------|

  S S S S E  S S S S Q.        S S S S E  S S S S Q.
------2-4-5------2-4-5------|------2-4-5------2-4-5------|
----2----------2------------|----3----------3------------|
----------------------------|----------------------------|
----------------------------|----------------------------|
----------------------------|----------------------------|
----------------------------|----------------------------|

  S S S S E  S S S S Q.        S S S S H.                W
------0-2-4------0-2-4------|----5-7-5-4------------||--------------------|
----0----------0------------|-----------------------||--------------------|
----------------------------|-----------------------||*-------------------|
----------------------------|-----------------------||*-------------------|
----------------------------|-----------------------||--------------------|
----------------------------|-----------------------||--------------------|

  W                   W                   W                   W
-------------------|-------------------|-------------------|-------------------|
-------------------|-------------------|-------------------|-------------------|
-------------------|-------------------|-------------------|-------------------|
-------------------|-------------------|-------------------|-------------------|
-------------------|-------------------|-------------------|-------------------|
-------------------|-------------------|-------------------|-------------------|

  W                   W                   W                   W
-------------------|-------------------|-------------------|-------------------|
-------------------|-------------------|-------------------|-------------------|
-------------------|-------------------|-------------------|-------------------|
-------------------|-------------------|-------------------|-------------------|
-------------------|-------------------|-------------------|-------------------|
-------------------|-------------------|-------------------|-------------------|

  W                   W                   W                   W
-------------------|-------------------|-------------------|-------------------|
-------------------|-------------------|-------------------|-------------------|
-------------------|-------------------|-------------------|-------------------|
-------------------|-------------------|-------------------|-------------------|
-------------------|-------------------|-------------------|-------------------|
-------------------|-------------------|-------------------|-------------------|

  W                   W                   W
-------------------|-------------------|-------------------|
-------------------|-------------------|-------------------|
-------------------|-------------------|-------------------|
-------------------|-------------------|-------------------|
-------------------|-------------------|-------------------|
-------------------|-------------------|-------------------|

  S S H        S S S S S S    S S H.           E     S S H        S S S S S S
--5-4-5----------4-5-7-5-4-|--5-4-5------------L--|--4-2-4--------0-2-4-5-4-2-|
---------------7-----------|----------------------|---------------------------|
---------------------------|----------------------|---------------------------|
---------------------------|----------------------|---------------------------|
---------------------------|----------------------|---------------------------|
---------------------------|----------------------|---------------------------|

  S S H.           E     S S H        S S S S S S    S S H.           E
--4-2-1------------L--|--5-4-5----------4-5-7-5-4-|--5-4-5------------L--|
----------------------|---------------7-----------|----------------------|
----------------------|---------------------------|----------------------|
----------------------|---------------------------|----------------------|
----------------------|---------------------------|----------------------|
----------------------|---------------------------|----------------------|

  S S H        S  S S S  S  S    S S H.           E     W
--7-5-7-------------7-9-10-12-|--9-7-9------------L--|-------------------|
---------------9-10-----------|----------------------|-------------------|
------------------------------|----------------------|-------------------|
------------------------------|----------------------|-------------------|
------------------------------|----------------------|-------------------|
------------------------------|----------------------|-------------------|

  W                   W                   W
-------------------|-------------------|---------------------||
-------------------|-------------------|---------------------||
-------------------|-------------------|-------------------*-||
-------------------|-------------------|-------------------*-||
-------------------|-------------------|---------------------||
-------------------|-------------------|---------------------||

Duration Legend
---------------
W - whole
H - half
Q - quarter
E - 8th
S - 16th
T - 32nd
X - 64th
. - note dotted
|-n-|  - n-tuplets





Harmony2
     W                   W                   W
E||-------------------|-------------------|-------------------|
B||-------------------|-------------------|-------------------|
G||-------------------|-------------------|-------------------|
D||-------------------|-------------------|-------------------|
A||-------------------|-------------------|-------------------|
E||-------------------|-------------------|-------------------|

  W                   W                   W                   W
-------------------|-------------------|-------------------|-------------------|
-------------------|-------------------|-------------------|-------------------|
-------------------|-------------------|-------------------|-------------------|
-------------------|-------------------|-------------------|-------------------|
-------------------|-------------------|-------------------|-------------------|
-------------------|-------------------|-------------------|-------------------|

  W                   W                   W                   W
-------------------|-------------------|-------------------|-------------------|
-------------------|-------------------|-------------------|-------------------|
-------------------|-------------------|-------------------|-------------------|
-------------------|-------------------|-------------------|-------------------|
-------------------|-------------------|-------------------|-------------------|
-------------------|-------------------|-------------------|-------------------|

  W                   W                   W                   W
-------------------|-------------------|-------------------|-------------------|
-------------------|-------------------|-------------------|-------------------|
-------------------|-------------------|-------------------|-------------------|
-------------------|-------------------|-------------------|-------------------|
-------------------|-------------------|-------------------|-------------------|
-------------------|-------------------|-------------------|-------------------|

    W                   W                   W
|--------------------|-------------------|-------------------|
|--------------------|-------------------|-------------------|
|*-------------------|-------------------|-------------------|
|*-------------------|-------------------|-------------------|
|--------------------|-------------------|-------------------|
|--------------------|-------------------|-------------------|

  W                   W                   W                   W
-------------------|-------------------|-------------------|-------------------|
-------------------|-------------------|-------------------|-------------------|
-------------------|-------------------|-------------------|-------------------|
-------------------|-------------------|-------------------|-------------------|
-------------------|-------------------|-------------------|-------------------|
-------------------|-------------------|-------------------|-------------------|

  W                   W                   W                   W
-------------------|-------------------|-------------------|-------------------|
-------------------|-------------------|-------------------|-------------------|
-------------------|-------------------|-------------------|-------------------|
-------------------|-------------------|-------------------|-------------------|
-------------------|-------------------|-------------------|-------------------|
-------------------|-------------------|-------------------|-------------------|

  W                   W                   W                   W
-------------------|-------------------|-------------------|-------------------|
-------------------|-------------------|-------------------|-------------------|
-------------------|-------------------|-------------------|-------------------|
-------------------|-------------------|-------------------|-------------------|
-------------------|-------------------|-------------------|-------------------|
-------------------|-------------------|-------------------|-------------------|

  W                   W                   W                   W
-------------------|-------------------|-------------------|-------------------|
-------------------|-------------------|-------------------|-------------------|
-------------------|-------------------|-------------------|-------------------|
-------------------|-------------------|-------------------|-------------------|
-------------------|-------------------|-------------------|-------------------|
-------------------|-------------------|-------------------|-------------------|

  W                   S S H        S S S S S S    S S H.           E
-------------------|---------------------------|----------------------|
-------------------|--2-0-2----------0-2-3-2-0-|--2-0-2------------L--|
-------------------|---------------2-----------|----------------------|
-------------------|---------------------------|----------------------|
-------------------|---------------------------|----------------------|
-------------------|---------------------------|----------------------|

  S S H        S S S S S S    S S H.           E     W
---------------------0-2-4-|--1-2-1------------L--|-------------------|
--3-2-3--------0-2-3-------|----------------------|-------------------|
---------------------------|----------------------|-------------------|
---------------------------|----------------------|-------------------|
---------------------------|----------------------|-------------------|
---------------------------|----------------------|-------------------|

  W                   W                   W
-------------------|-------------------|---------------------||
-------------------|-------------------|---------------------||
-------------------|-------------------|-------------------*-||
-------------------|-------------------|-------------------*-||
-------------------|-------------------|---------------------||
-------------------|-------------------|---------------------||

Duration Legend
---------------
W - whole
H - half
Q - quarter
E - 8th
S - 16th
T - 32nd
X - 64th
. - note dotted
|-n-|  - n-tuplets





Chords
     W                   W                   W
E||-------------------|-------------------|-------------------|
B||-------------------|-------------------|-------------------|
G||-------------------|-------------------|-------------------|
D||-------------------|-------------------|-------------------|
A||-------------------|-------------------|-------------------|
E||-------------------|-------------------|-------------------|

  S S S S S S S S S S S S S S S S    S S S S S S S S S S S S S S S S
----2-2-2---2-2-2-2-2-2-2---2-2-2-|----2-2-2---2-2-2-2-2-2-2---2-2-2-|
----2-2-2---2-2-2-2-2-2-2---2-2-2-|----3-3-3---3-3-3-3-3-3-3---3-3-3-|
----2-2-2---2-2-2-2-2-2-2---2-2-2-|----2-2-2---2-2-2-2-2-2-2---2-2-2-|
----------------------------------|----------------------------------|
----------------------------------|----------------------------------|
----------------------------------|----------------------------------|

  S S S S S S S S S S S S S S S S    S S S S S S S S S S S S S S S S
----0-0-0---0-0-0-0-0-0-0---0-0-0-|----1-1-1---1-1-1-1-1-1-1---1-1-1-|
----0-0-0---0-0-0-0-0-0-0---0-0-0-|----2-2-2---2-2-2-2-2-2-2---2-2-2-|
----1-1-1---1-1-1-1-1-1-1---1-1-1-|----1-1-1---1-1-1-1-1-1-1---1-1-1-|
----------------------------------|----------------------------------|
----------------------------------|----------------------------------|
----------------------------------|----------------------------------|

  S S S S S S S S S S S S S S S S    S S S S S S S S S S S S S S S S
----2-2-2---2-2-2-2-2-2-2---2-2-2-|----2-2-2---2-2-2-2-2-2-2---2-2-2-|
----2-2-2---2-2-2-2-2-2-2---2-2-2-|----3-3-3---3-3-3-3-3-3-3---3-3-3-|
----2-2-2---2-2-2-2-2-2-2---2-2-2-|----2-2-2---2-2-2-2-2-2-2---2-2-2-|
----------------------------------|----------------------------------|
----------------------------------|----------------------------------|
----------------------------------|----------------------------------|

  S S S S S S S S S S S S S S S S    S S S S S S S S S S S S S S S S
----0-0-0---0-0-0-0-0-0-0---0-0-0-|----1-1-1---1-1-1-1-1-1-1---1-1-1-|
----0-0-0---0-0-0-0-0-0-0---0-0-0-|----2-2-2---2-2-2-2-2-2-2---2-2-2-|
----1-1-1---1-1-1-1-1-1-1---1-1-1-|----1-1-1---1-1-1-1-1-1-1---1-1-1-|
----------------------------------|----------------------------------|
----------------------------------|----------------------------------|
----------------------------------|----------------------------------|

  S S S S S S S S S S S S S S S S    S S S S S S S S S S S S S S S S
----2-2-2---2-2-2-2-2-2-2---2-2-2-|----2-2-2---2-2-2-2-2-2-2---2-2-2-|
----2-2-2---2-2-2-2-2-2-2---2-2-2-|----3-3-3---3-3-3-3-3-3-3---3-3-3-|
----2-2-2---2-2-2-2-2-2-2---2-2-2-|----2-2-2---2-2-2-2-2-2-2---2-2-2-|
----------------------------------|----------------------------------|
----------------------------------|----------------------------------|
----------------------------------|----------------------------------|

  S S S S S S S S S S S S S S S S    S S S S S S S S S S S S S S S S
----0-0-0---0-0-0-0-0-0-0---0-0-0-|----1-1-1---1-1-1-1-1-1-1---1-1-1-|
----0-0-0---0-0-0-0-0-0-0---0-0-0-|----2-2-2---2-2-2-2-2-2-2---2-2-2-|
----1-1-1---1-1-1-1-1-1-1---1-1-1-|----1-1-1---1-1-1-1-1-1-1---1-1-1-|
----------------------------------|----------------------------------|
----------------------------------|----------------------------------|
----------------------------------|----------------------------------|

    S S S S S S S S S S S S S S S S    S S S S S S S S S S S S S S S S
|-----2-2-2---2-2-2-2-2-2-2---2-2-2-|----2-2-2---2-2-2-2-2-2-2---2-2-2-|
|-----2-2-2---2-2-2-2-2-2-2---2-2-2-|----3-3-3---3-3-3-3-3-3-3---3-3-3-|
|*----2-2-2---2-2-2-2-2-2-2---2-2-2-|----2-2-2---2-2-2-2-2-2-2---2-2-2-|
|*----------------------------------|----------------------------------|
|-----------------------------------|----------------------------------|
|-----------------------------------|----------------------------------|

  S S S S S S S S S S S S S S S S    S S S S S S S S S S S S S S S S
----0-0-0---0-0-0-0-0-0-0---0-0-0-|----1-1-1---1-1-1-1-1-1-1---1-1-1-|
----0-0-0---0-0-0-0-0-0-0---0-0-0-|----2-2-2---2-2-2-2-2-2-2---2-2-2-|
----1-1-1---1-1-1-1-1-1-1---1-1-1-|----1-1-1---1-1-1-1-1-1-1---1-1-1-|
----------------------------------|----------------------------------|
----------------------------------|----------------------------------|
----------------------------------|----------------------------------|

  S S S S S S S S S S S S S S S S    S S S S S S S S S S S S S S S S
----2-2-2---2-2-2-2-2-2-2---2-2-2-|----2-2-2---2-2-2-2-2-2-2---2-2-2-|
----2-2-2---2-2-2-2-2-2-2---2-2-2-|----3-3-3---3-3-3-3-3-3-3---3-3-3-|
----2-2-2---2-2-2-2-2-2-2---2-2-2-|----2-2-2---2-2-2-2-2-2-2---2-2-2-|
----------------------------------|----------------------------------|
----------------------------------|----------------------------------|
----------------------------------|----------------------------------|

  S S S S S S S S S S S S S S S S    S S S S S S S S S S S S S S S S
----0-0-0---0-0-0-0-0-0-0---0-0-0-|----1-1-1---1-1-1-1-1-1-1---1-1-1-|
----0-0-0---0-0-0-0-0-0-0---0-0-0-|----2-2-2---2-2-2-2-2-2-2---2-2-2-|
----1-1-1---1-1-1-1-1-1-1---1-1-1-|----1-1-1---1-1-1-1-1-1-1---1-1-1-|
----------------------------------|----------------------------------|
----------------------------------|----------------------------------|
----------------------------------|----------------------------------|

  S S S S S S S S S S S S S S S S    S S S S S S S S S S S S S S S S
----2-2-2---2-2-2-2-2-2-2---2-2-2-|----2-2-2---2-2-2-2-2-2-2---2-2-2-|
----2-2-2---2-2-2-2-2-2-2---2-2-2-|----3-3-3---3-3-3-3-3-3-3---3-3-3-|
----2-2-2---2-2-2-2-2-2-2---2-2-2-|----2-2-2---2-2-2-2-2-2-2---2-2-2-|
----------------------------------|----------------------------------|
----------------------------------|----------------------------------|
----------------------------------|----------------------------------|

  S S S S S S S S S S S S S S S S    S S S S S S S S S S S S S S S S
----0-0-0---0-0-0-0-0-0-0---0-0-0-|----1-1-1---1-1-1-1-1-1-1---1-1-1-|
----0-0-0---0-0-0-0-0-0-0---0-0-0-|----2-2-2---2-2-2-2-2-2-2---2-2-2-|
----1-1-1---1-1-1-1-1-1-1---1-1-1-|----1-1-1---1-1-1-1-1-1-1---1-1-1-|
----------------------------------|----------------------------------|
----------------------------------|----------------------------------|
----------------------------------|----------------------------------|

  S S S S S S S S S S S S S S S S    S S S S S S S S S S S S S S S S
----2-2-2---2-2-2-2-2-2-2---2-2-2-|----2-2-2---2-2-2-2-2-2-2---2-2-2-|
----2-2-2---2-2-2-2-2-2-2---2-2-2-|----3-3-3---3-3-3-3-3-3-3---3-3-3-|
----2-2-2---2-2-2-2-2-2-2---2-2-2-|----2-2-2---2-2-2-2-2-2-2---2-2-2-|
----------------------------------|----------------------------------|
----------------------------------|----------------------------------|
----------------------------------|----------------------------------|

  S S S S S S S S S S S S S S S S    S S S S S S S S S S S S S S S S
----0-0-0---0-0-0-0-0-0-0---0-0-0-|----1-1-1---1-1-1-1-1-1-1---1-1-1-|
----0-0-0---0-0-0-0-0-0-0---0-0-0-|----2-2-2---2-2-2-2-2-2-2---2-2-2-|
----1-1-1---1-1-1-1-1-1-1---1-1-1-|----1-1-1---1-1-1-1-1-1-1---1-1-1-|
----------------------------------|----------------------------------|
----------------------------------|----------------------------------|
----------------------------------|----------------------------------|

  S S S S S S S S S S S S S S S S    S S S S S S S S S S S S S S S S
----2-2-2---2-2-2-2-2-2-2---2-2-2-|----2-2-2---2-2-2-2-2-2-2---2-2-2-|
----2-2-2---2-2-2-2-2-2-2---2-2-2-|----3-3-3---3-3-3-3-3-3-3---3-3-3-|
----2-2-2---2-2-2-2-2-2-2---2-2-2-|----2-2-2---2-2-2-2-2-2-2---2-2-2-|
----------------------------------|----------------------------------|
----------------------------------|----------------------------------|
----------------------------------|----------------------------------|

  S S S S S S S S S S S S S S S S    S S S S S S S S S S S S S S S S
----0-0-0---0-0-0-0-0-0-0---0-0-0-|----1-1-1---1-1-1-1-1-1-1---1-1-1-|
----0-0-0---0-0-0-0-0-0-0---0-0-0-|----2-2-2---2-2-2-2-2-2-2---2-2-2-|
----1-1-1---1-1-1-1-1-1-1---1-1-1-|----1-1-1---1-1-1-1-1-1-1---1-1-1-|
----------------------------------|----------------------------------|
----------------------------------|----------------------------------|
----------------------------------|----------------------------------|

  S S S S S S S S S S S S S S S S    S S S S S S S S S S S S S S S S
----2-2-2---2-2-2-2-2-2-2---2-2-2-|----2-2-2---2-2-2-2-2-2-2---2-2-2-|
----2-2-2---2-2-2-2-2-2-2---2-2-2-|----3-3-3---3-3-3-3-3-3-3---3-3-3-|
----2-2-2---2-2-2-2-2-2-2---2-2-2-|----2-2-2---2-2-2-2-2-2-2---2-2-2-|
----------------------------------|----------------------------------|
----------------------------------|----------------------------------|
----------------------------------|----------------------------------|

  S S S S S S S S S S S S S S S S    S S S S S S S S S S S S S S S S
----0-0-0---0-0-0-0-0-0-0---0-0-0-|----1-1-1---1-1-1-1-1-1-1---1-1-1-|
----0-0-0---0-0-0-0-0-0-0---0-0-0-|----2-2-2---2-2-2-2-2-2-2---2-2-2-|
----1-1-1---1-1-1-1-1-1-1---1-1-1-|----1-1-1---1-1-1-1-1-1-1---1-1-1-|
----------------------------------|----------------------------------|
----------------------------------|----------------------------------|
----------------------------------|----------------------------------|

  S S S S S S S S S S S S S S S S    S S S S S S S S S S S S S S S S
----2-2-2---2-2-2-2-2-2-2---2-2-2-|----2-2-2---2-2-2-2-2-2-2---2-2-2-|
----2-2-2---2-2-2-2-2-2-2---2-2-2-|----3-3-3---3-3-3-3-3-3-3---3-3-3-|
----2-2-2---2-2-2-2-2-2-2---2-2-2-|----2-2-2---2-2-2-2-2-2-2---2-2-2-|
----------------------------------|----------------------------------|
----------------------------------|----------------------------------|
----------------------------------|----------------------------------|

  S S S S S S S S S S S S S S S S    S S S S S S S S S S S S S S S S
----0-0-0---0-0-0-0-0-0-0---0-0-0-|----1-1-1---1-1-1-1-1-1-1---1-1-1---||
----0-0-0---0-0-0-0-0-0-0---0-0-0-|----2-2-2---2-2-2-2-2-2-2---2-2-2---||
----1-1-1---1-1-1-1-1-1-1---1-1-1-|----1-1-1---1-1-1-1-1-1-1---1-1-1-*-||
----------------------------------|----------------------------------*-||
----------------------------------|------------------------------------||
----------------------------------|------------------------------------||

Duration Legend
---------------
W - whole
H - half
Q - quarter
E - 8th
S - 16th
T - 32nd
X - 64th
. - note dotted
|-n-|  - n-tuplets
Login or Register to remove this ad.

53 comments on Gerudo Valley

Where is the Intro?

Where is the Intro?

the intro

the intro is

e------------5-4-5-7-----9---------------
B---------6--------------9---------------
G-----4-6----------------10--------------
D---6------------------------------------
A-4--------------------------------------
E----------------------------------------

WOOO! Great job.

WOOO! Great job.

cool tab there buddy keep

cool tab there buddy keep tabbin away thanx sir

liek missing some tabs . . .

liek missing some tabs . . . from 0:33 to 1:10 ders nothing . . . so yeh . . . plz tab?

dude you rock the tabs are

dude you rock the tabs are great ive been trying it for 5 mins and i have all by heart, man your awsome

I saw your video on youtube.

I saw your video on youtube. you did an awesome job. i was gonna quit guitar but then i found this

the intro

the intro is

----------5(LR)4-7-9--
--------7---6-0-0-0--
----4-7--------------
--6------------------
4-(LR----)------------
---------------------

LR - let ring

k...u guys suck at

k...u guys suck at tabbing...u never included any solos or anything...it seems to be missing a lot of tabs...

go fuck urself

go fuck urself

hey faggot how about you

hey faggot how about you find a better tab and post it yourself if this one isnt doing it for you

Go fuck yourself John. Great

Go fuck yourself John. Great job on the tabbing man.

That doesn't look like the

That doesn't look like the intro he uses in the video.

where's the

where's the intro?

otherwise, I think it's great

Great tab I would have loved

Great tab I would have loved to have seen it organized a little better, but i found my way through it, night tabs, keep up the good work.

great tab i was wondering

great tab i was wondering what kind of effects you use to make the trumpet sound in your video

Can anyone please tell me

Can anyone please tell me what S, E, T, X means?
i dont understand 8th,16th,24th and so onth...
Good tab by the way.. Thou art indeed the god of videogame rocking!

s = sixteenth note e =

s = sixteenth note
e = eighth note
t = thirty-second note
x = ? i think sixty-fourth note...

what a fuck?? this is a

what a fuck?? this is a bullshit i dón think that this little thing is a complete song this is a shit

everyone dissing this tab.

everyone dissing this tab. clearly doesn't understand how to work theyre way through a tab. The intro is chords. The Chords are under "guitar 4". The effect being used is Reverb by the sounds of it. Turn it all the way up to 10.

There are several bits

There are several bits missing, please tab them out because im not doing very well.

what does the w and the s

what does the w and the s mean?

fuck the haters. as close to

fuck the haters. as close to a correct tab as you will get. and if you're having trouble deciphering the tab then u need some practice. it's very simple.

i need to know the cords to

i need to know the cords to the first part but other than that i guess its close enough to the song

hey dumbasses stop dissing

hey dumbasses stop dissing the tab, you ave no ideaow hard it is to put this together

I would assume this is the

I would assume this is the tab linked to http://www.youtube.com/watch?v=1rfGbB0zqz8

If so, it does sound like this tab has a lot of errors, I said screw it and am trying by ear. This is what I get for the intro:

e-------------5----4-7-9~~-
B-----------7----6---------
G---------7----------------
D-------6------------------
A---4/5--------------------
E--------------------------

Why are people dissing this

5

Why are people dissing this tab? This is one of the BEST tabs around, who ever made it should be proud, its incredibly hard to make tabs, so pleaser don't repect their efforts, espiecally when its for no reason

why does the video's chords

why does the video's chords and this tab chords doesnt match?

I guess I just don't

I guess I just don't understand...in the video playing he will break into 2 sting harmony at some points, in addition all of the "notes" in the song are there, but it's not techincally fully tabbed. Are you just supposed to figure those parts out? The harmony is what's getting me here, am I just missing something in the tab?

wich are the chords in the

wich are the chords in the beginning of the song

pretty good but some bits

pretty good but some bits missing

on the sixth line there is

on the sixth line there is nothing but chords. there should be pull offs and hammer-ons.

it's missing the intro which

it's missing the intro which i think someone posted as a comment but some of the melodies are wrong:

S S H S S S S S S S S H. E S S H S S S S S S
--5-4-5----------4-5-7-5-4-|--5-4-5------------L--|--4-2-4--------0-2-4-5-4-2-|
---------------7-----------|----------------------|---------------------------|
---------------------------|----------------------|---------------------------|
---------------------------|----------------------|---------------------------|
---------------------------|----------------------|---------------------------|
---------------------------|----------------------|---------------------------|

either that or the part that i think this is supposed to be... is missing.

If it doesn't mmake sense,

5

If it doesn't mmake sense, find the chords, put your fingers on the strings, and whale on them. Or, use the other parts and play those. Everything else is for multiple guitars.

GERUDO VALLEY -

4

GERUDO VALLEY - ZELDA

Intro
|----------5---4-7-9--|
|--------7---6-0-0-0--|
|----4-7--------------|
|--6------------------|
|4--------------------|
|---------------------|

Guitar 2 Backgroung
|-2-2-2-2-2-2-2-2-|-2-2-2-2-2-2-2-2-|-0-0-0-0-0-0-0-0-|-1-1-1-1-1-1-1-1-| 
|-2-2-2-2-2-2-2-2-|-3-3-3-3-3-3-3-3-|-0-0-0-0-0-0-0-0-|-2-2-2-2-2-2-2-2-|
|-2-2-2-2-2-2-2-2-|-2-2-2-2-2-2-2-2-|-1-1-1-1-1-1-1-1-|-1-1-1-1-1-1-1-1-|
|-----------------|-----------------|-----------------|-----------------|
|-----------------|-----------------|-----------------|-----------------|
|-----------------|-----------------|-----------------|-----------------|

Guitar 1 Melody 
|---2-4-5---2-4-5-|---2-4-5---2-4-5-|---0-2-4---0-2-4-|-2-4-2-1--|
|-2-------2-------|-3-------3-------|-0-------0-------|----------|
|-----------------|-----------------|-----------------|----------|
|-----------------|-----------------|-----------------|----------|
|-----------------|-----------------|-----------------|----------|
|-----------------|-----------------|-----------------|----------|

|---2-4-5---2-4-5-|---2-4-5---2-4-5-|---0-2-4---0-2-4-|-5-7-5-4--| 
|-2-------2-------|-3-------3-------|-0-------0-------|----------| 
|-----------------|-----------------|-----------------|----------| 
|-----------------|-----------------|-----------------|----------| 
|-----------------|-----------------|-----------------|----------|
|-----------------|-----------------|-----------------|----------|

|---5-4-2-|---0-0h2p0---|---4-2-0-|-------------|
|-2-------|-2---------3-|-0-------|-2-3-3h5p3-2-|
|---------|-------------|---------|-------------|
|---------|-------------|---------|-------------|
|---------|-------------|---------|-------------|
|---------|-------------|---------|-------------|

|---5-4-2-|---0-0h2p0---|-----2-0-----|
|-2-------|-2---------3-|---0-0-0-3-2-|
|---------|-------------|-2-------1-1-|
|---------|-------------|-4-----------|
|---------|-------------|-------------|
|---------|-------------|-------------|

|-5-4-5-4-----------|-4-2-4-0-------------|
|-----------5-------|---------3-2-3h5p3-2-|
|---------6---7-6-7-|---------------------|
|-------------------|---------------------|
|-------------------|---------------------|
|-------------------|---------------------|

|-----------------|-----------------|-----4-2-----|
|-------2-------2-|-------3-------3-|-3-0-3-2-0-2-|
|---1-2-----1-2---|---1-2-----1-2---|-2-------1-1-|
|-4-------4-------|-4-------4-------|-------------|
|-----------------|-----------------|-------------|
|-----------------|-----------------|-------------|

|-5-4-5---4-5-7-5-4-5-4-5-|-4-2-4---2-4-5-4-2-4-2-1-|
|-------7-----------------|-------5-----------------|
|-------------------------|-------------------------|
|-------------------------|-------------------------|
|-------------------------|-------------------------|
|-------------------------|-------------------------|

|-5-4-5---4-5-7-5-4-5-4-5-|------------------9-10-12-9-10-9-|
|-------7-----------------|-12-10-12-9-10-12----------------|
|-------------------------|---------------------------------|
|-------------------------|---------------------------------|
|-------------------------|---------------------------------|
|-------------------------|---------------------------------|

|-------------------------|------------------0-2--4--1-2--1-|
|-2-0-2---0-2-3-2-0-2-0-2-|-3--2--3--0-2--3-----------------|
|-------2-----------------|---------------------------------|
|-------------------------|---------------------------------|
|-------------------------|---------------------------------|
|-------------------------|---------------------------------|

|-----------------|-----------------|-----------------|----------|
|-----------------|-----------------|-----------------|-3h5p3-2--|
|---2-1-2---2-1-2-|---2-1-2---2-1-2-|---4-3-4---4-3-4-|----------|
|-4-------4-------|-0-------0-------|-2-------2-------|----------|
|-----------------|-----------------|-----------------|----------|
|-----------------|-----------------|-----------------|----------|

Copy N Paste The Above Into

Copy N Paste The Above Into 'NotePad' Then Read,....

Put <pre></pre> tags around

Put <pre></pre> tags around your tabs to make them format correctly.

It sounds way better up.

It sounds way better up. Like, the original tab has:

|---2-4-5---2-4-5-|---2-4-5---2-4-5-|---0-2-4---0-2-4-|-2-4-2-1--|
|-2-------2-------|-3-------3-------|-0-------0-------|----------|
|-----------------|-----------------|-----------------|----------|
|-----------------|-----------------|-----------------|----------|
|-----------------|-----------------|-----------------|----------|
|-----------------|-----------------|-----------------|----------|

But I think it sounds a lot better as:

|-----------------|-----------------|-----------------|----------|
|------8h9-----8h9|-----8h9-----8h9-|----6h7--6h7-----|-6h8p6p5--|
|---10-------10---|---10------10----|--8-----8--------|----------|
|-10-------10-----|-11------11------|-8-----8---------|----------|
|-----------------|-----------------|-----------------|----------|
|-----------------|-----------------|-----------------|----------|

Also, from watching him on the Youtube video it looks like this is the correct tab for the intro:

|-----------5-----|-4--7s9----------|
|---------7---7---|-----------------|
|-------7---------|-----------------|
|-----6-----------|-----------------|
|-4s5-------------|-----------------|
|-----------------|-----------------|

Tell me if there are any errors

Crap, the formatting got

Crap, the formatting got screwed up ^

Try copying and pasting it into notepad.

Here, I posted it again, but

Here, I posted it again, but this time everything is correctly formatted.

This is the orginal:

|---2-4-5---2-4-5-|---2-4-5---2-4-5-|---0-2-4---0-2-4-|-2-4-2-1--|
|-2-------2-------|-3-------3-------|-0-------0-------|----------|
|-----------------|-----------------|-----------------|----------|
|-----------------|-----------------|-----------------|----------|
|-----------------|-----------------|-----------------|----------|
|-----------------|-----------------|-----------------|----------|

But I think it sounds a lot better this way. It's higher, and easier to play as well:

|-----------------|-----------------|-----------------|----------|
|------8h9-----8h9|-----8h9-----8h9-|----6h7--6h7-----|-6h8p6p5--|
|---10-------10---|---10------10----|--8-----8--------|----------|
|-10-------10-----|-11------11------|-8-----8---------|----------|
|-----------------|-----------------|-----------------|----------|
|-----------------|-----------------|-----------------|----------|

Also, from watching him on the Youtube video it looks like this is the correct tab for the intro:

|-----------5-----|-4--7s9----------|
|---------7---7---|-----------------|
|-------7---------|-----------------|
|-----6-----------|-----------------|
|-4s5-------------|-----------------|
|-----------------|-----------------|

you miss many tabs because

5

you miss many tabs because tis repits a 1000 times more then it shud be repited

S S S S E S S S S Q S S S S S S E S S S S Q S S
------2-4-5------2-4-5----L---|------2-4-5------2-4-5----L---|
----2----------2--------------|----3----------3--------------|
------------------------------|------------------------------|
------------------------------|------------------------------|
------------------------------|------------------------------|
------------------------------|------------------------------|

S S S S E S S S S Q S S S S S S H E. S
------0-2-4------0-2-4----L---|----2-4-2-1--------L-----|
----0----------0--------------|-------------------------|
------------------------------|-------------------------|
------------------------------|-------------------------|
------------------------------|-------------------------|
------------------------------|-------------------------|

S S S S E S S S S Q S S S S S S E S S S S Q S S
------2-4-5------2-4-5----L---|------2-4-5------2-4-5----L---|
----2----------2--------------|----3----------3--------------|
------------------------------|------------------------------|
------------------------------|------------------------------|
------------------------------|------------------------------|
------------------------------|------------------------------|

S S S S E S S S S Q S S S S S S H E. S W
------0-2-4------0-2-4----L---|----5-7-5-4--------L-----||--------------------|
----0----------0--------------|-------------------------||--------------------|
------------------------------|-------------------------||*-------------------|
------------------------------|-------------------------||*-------------------|
------------------------------|-------------------------||--------------------|
------------------------------|-------------------------||--------------------|

I'm being a complete a-hole

I'm being a complete a-hole as I say this but, why on earth would i get tab advise from somebody who spells repeated as "repited"?

Geez Guys ure tabbing is

Geez Guys ure tabbing is perfect thx heaps i was beginning to get really frustrated with the original tabs as so much was missing, thx heaps

those tabs dont look

3

those tabs dont look correct.
at least from the youtube vid i found the link to this tab from...

any one know of any other places wher ei can find this tab?

-jinny-

http://www.azchords.com/t/the

http://www.azchords.com/t/themesongs-tabs-4355/zeldagerudovalleycorrect-...

right here bud.
should be what youre looking for i think.:P
if youre talking about the same youtube video i was watching lol.

okay geez guyz tab is right

5

okay geez guyz tab is right on.

he wins.

his is right; the one above is missing parts.

way to go geez guyz!

How many people have heard

How many people have heard Scatman John's music? You HAVE to....R.I.P Scatman! (Note:I know this has nothing to do with the song)

yea nice tab

5

yea nice tab

and im sorry if i look/sound

and im sorry if i look/sound really dumb asking this.
but whats 'L' stand for ? :S
yeahh, i taught myself how to play guitar for only like three years now, so i dun know like, ALL the tricks to it :P

This tab is great, nice

This tab is great, nice video too.

Best Gerudo Valley

5

Nice tabs! i think this one is the best nice vid too! ^__^

Chords in video

Chords used in his video

f#m / d / e / c#major

E||--------2----------|-------2-----------|--------0----------|---------x---------|
B||--------2----------|-------3-----------|--------0----------|---------6---------|
G||--------2----------|-------2-----------|--------1----------|---------6---------|
D||--------4----------|-------0-----------|--------2----------|---------6---------|
A||--------4----------|-------------------|--------2----------|---------4---------|
E||--------2----------|-------------------|--------0----------|-------------------|

well i thought it was the

well i thought it was the bomb "both music and the vid" i'm kinda new at playing song's that are of a faster beat and i'm able to understand these cords just fine.... now if only i could get my finger's to work with me lol. keep makein tabs i loved it!