Ads

Music Box House (Legend of Zelda: Majora's Mask) Guitar Tab

Submitted: Aug 12, 2008 by hslesperance (Last updated: Oct 22, 2009)

5
Average: 5 (3 votes)
Download | Listen
Game: Legend of Zelda: Majora's Mask
Composer(s): Koji Kondo, Toru Minegishi
Style: Transcription
Series: Legend of Zelda

AutoScroll: Slow | Medium | Fast
Music Box House
The Legend of Zelda: Majoras Mask
Composed by Koji Kondo
Tabbed by hslesperance
8/11/08

Archard already has the first half of the song posted,
so I didn't bother to tab that out.

Tempo= 184

e---5-----------5-------5---3-----------3-------3-----
B-----6-------6---6---6-------5-------5---5---5-------
G-------5---5-------5-----------5---5-------5---------
D---------7-----------------------5-------------------
A-----------------------------------------------------
E-----------------------------------------------------

e---1-----------1-------1---0-----------0-------0-----
B-----3-------3---3---3-------1-------1---1---1-------
G-------4---4-------4-----------0---0-------0---------
D---------5-----------------------2-------------------
A-----------------------------------------------------
E-----------------------------------------------------

e---5-----------5-------5---3-----------3-------3-----
B-----6-------6---6---6-------5-------5---5---5-------
G-------5---5-------5-----------5---5-------5---------
D---------7-----------------------5-------------------
A-----------------------------------------------------
E-----------------------------------------------------

e---1-----------1-------------------------------------
B-----3-------3---3-----0-3-1-------------------------
G-------4---4-------4-2-------------------------------
D---------5-------------------------------------------
A-----------------------------------------------------
E-----------------------------------------------------
Login or Register to remove this ad.

2 comments on Music Box House

So this is the rhythm

So this is the rhythm accompaniment to the melody? Or is my shitty hearing not catching the melody in this?

This is the melody. Listen

This is the melody. Listen to the midi from 00:34 to 00:48.
Everything before that you can find in archard's tab.