Gloomy Spiral Mountain (Banjo-Tooie) Guitar Tab

Submitted: Apr 09, 2008 by Rembrant (Last updated: Apr 09, 2008)

4.833335
Average: 4.8 (6 votes)
Download | Listen
Game: Banjo-Tooie
Composer(s): Grant Kirkhope
Style: Transcription

AutoScroll: Slow | Medium | Fast
e-0-0-2-0--------------0-----------------------
B---------0-0--1-0-1-3---3-1-0-0-1-0-----------
G------------------------------------0-2---0---
D----------------------------------------4-----
A----------------------------------------------
E----------------------------------------------

e---------0-0-2-0-----3-2-3-2-0--2-2-3-2----------------------
B---0-2-4---------0-0--------------------2--4-3-4-3------1-3--
G-2--------------------------------------------------3-3------
D-------------------------------------------------------------
A-------------------------------------------------------------
E-------------------------------------------------------------

e-------------------------------------------------
B-4-4-4-3-4-0--4-4-4-3-4-1--4-4-4-3-4-------------
G--------------------------------------4-2-1-L----
D-------------------------------------------------
A-------------------------------------------------
E-------------------------------------------------

e---------3----------------------3--5-5-2-2-5-5-2-2--
B-1-3-4-1------------3---1-3-4-1---------------------
G------------0-2-3-0---------------------------------
D----------------------------------------------------
A----------------------------------------------------
E----------------------------------------------------
Login or Register to remove this ad.

3 comments on Gloomy Spiral Mountain

Nice

5

Nice

Poor Bottles...

5

Poor Bottles...

:(

:(