Ads

Main Theme (Banjo-Kazooie) Guitar Tab

Submitted: Jan 18, 2009 by Kuzune

5
Average: 5 (5 votes)
Download | Listen
Game: Banjo-Kazooie
Composer(s): Grant Kirkhope
Style: Transcription

AutoScroll: Slow | Medium | Fast
|-----|Banjo-Kazooie: Theme Song|-----|

|--Game: Banjo-Kazooie (Nintendo 64)
|--Song: Theme Song
|--Composer: Grant Kirkhope
|--Year: 1998

|--Tabbed by: Kuzune
|--Tab Date: 08/01/09


|---Information:

|-Guitars: 1
|-Tuning: Guitar 1 (E B G D A E)


|---Key:

h - Hammer-on
p - Pull-off
t - Tapped note
L - Tied note
/ or \ - Slide up (/) and down (\)

|---Duration Legend:

W - Whole
H - Half
Q - Quarter
E - 8th
S - 16th
T - 32nd
X - 64th
. - Dotted note
|-n-| - N-tuplet




|---INTRO:

|Tempo: Q = 150

   |--3--|                           |--3--|
   E  E  E Q       H                 E  E  E Q       H
E|-0--1--4-3-----------------------|-5--6--7-8-----------------------|
B|-1--3--2-5-----------------------|-6--8--9-10----------------------|
G|---------------------------------|---------------------------------|
D|---------------------------------|---------------------------------|
A|---------------------------------|---------------------------------|
E|---------------------------------|---------------------------------|

   S S S S S S S S S S S S S S S S   S S S S S S S S S S S S S S S S
||---------------------------------|-----------------0-1-2-3-4-5-6-7-|
||---------------------------------|-------0-1-2-3-4-----------------|
||-------------------------------0-|-1-2-3---------------------------|
||---------------------0-1-2-3-4---|---------------------------------|
||-----------0-1-2-3-4-------------|---------------------------------|
||-0-1-2-3-4-----------------------|---------------------------------|

   Q       H.
||-8-------------------------------|
||---------------------------------|
||---------------------------------|
||---------------------------------|
||---------------------------------|
||---------------------------------|


|---PART 1:

   S S S S S S S S S S S S S S S S   S S S S S S S S S S S S S S S S
||t8p3h5p3t8p3h5p3t8p3h5p3t8p3h5p3-|t8p2h4p2t8p2h4p2t8p2h4p2t8p2h4p2-|
||---------------------------------|---------------------------------|
||---------------------------------|---------------------------------|
||---------------------------------|---------------------------------|
||---------------------------------|---------------------------------|
||---------------------------------|---------------------------------|

           |--3--|                           |--3--|
   E.    S E  E  E E.    S E.    S   E.    S E  E  E E.    S E.    S
||-3-------------5-3---------------|-3-------------5-3---------------|
||-5-------5-----6-5-------5-------|-5-------5-----6-5-------5-------|
||---------5---------------5-------|---------5---------------5-------|
||---------------------------------|---------------------------------|
||---------------------------------|---------------------------------|
||---------------------------------|---------------------------------|

   S S S S S S S S S S S S S S S S   S S S S S S S S S S S S S S S S
||t8p3h5p3t8p3h5p3t8p3h5p3t8p3h5p3-|t8p2h4p2t8p2h4p2t8p2h4p2t8p2h4p2-|
||---------------------------------|---------------------------------|
||---------------------------------|---------------------------------|
||---------------------------------|---------------------------------|
||---------------------------------|---------------------------------|
||---------------------------------|---------------------------------|

           |--3--|
   E.    S E  E  E E.    S Q         E.    S E.    S E.    S E.    S
||-3-------3-----5-6-------5-------|-3-------6-------3---------------|
||-5-------5-----6-8-------6-------|-5-------8-------5-------5-------|
||---------------------------------|-------------------------5-------|
||---------------------------------|---------------------------------|
||---------------------------------|---------------------------------|
||---------------------------------|---------------------------------|


|---PART 2:


   E       S   S   E       E       S   S   S   S   S   S   S   S
||-------------------------13----------------------13--------------|
||---------13-p12-h13----------------------10--13------13--10------|
||-10----------------------------------10----------------------10--|
||---------------------------------10------------------------------|
||-----------------------------------------------------------------|
||-----------------------------------------------------------------|

   E       S   S   E       E       S   S   S   S   S   S   S   S
||---------------------------------------------13------------------|
||-------------------------14--------------14------14--------------|
||---------13-p12-h13--------------10--13--------------13--10------|
||-11----------------------------------------------------------11--|
||-----------------------------------------------------------------|
||-----------------------------------------------------------------|

   S   E   E   E   E   E   E   E     E   E   E   E   E   E   E   E 
           |--3--|
   Q       E  E  E Q       E.    S   S S S S S S S S S S S S S S S S
||---------------------------------|---------------------------------|
||---------------------------------|---------------------------------|
||-5-------------7-5---------------|---------------------------------|
||---------7---------------7-------|-------------7-----------0---2---|
||---------------------------------|-8p7h8p7h8-------3---4-----------|
||---------------------------------|---------------------------------|

   E       S   S   E       E       S   S   S   S   S   S   S   S
||-------------------------13----------------------13--------------|
||---------13-p12-h13----------------------10--13------13--10------|
||-10----------------------------------10----------------------10--|
||---------------------------------10------------------------------|
||-----------------------------------------------------------------|
||-----------------------------------------------------------------|

   E       S   S   E       E       S   S   S   S   S   S   S   S
||---------------------------------------------13------------------|
||-------------------------14--------------14------14--------------|
||---------13-p12-h13--------------10--13--------------13--10------|
||-11----------------------------------------------------------11--|
||-----------------------------------------------------------------|
||-----------------------------------------------------------------|

   E   E   E   E   E   E   E   E     E   E   E   E   E   E   E   E
||-7---8---8---8---7---8---8---8---|-12--13--13--13--12--13--13--13--|
||-5---6---6---6---5---6---6---6---|-9---10--10--10--9---10--10--10--|
||---------------------------------|---------------------------------|
||---------------------------------|---------------------------------|
||---------------------------------|---------------------------------|
||---------------------------------|---------------------------------|


|---PART 3:

   S S S S E   E   E   E   E   E     S S S S E   E   E   E   E   E
||-------------5---7---5-----------|-------------5---6---5-----------|
||-8-8-8-8-8---------------8-------|-8-8-8-8-8---------------8-------|
||-----------------------------7---|-----------------------------8---|
||---------------------------------|---------------------------------|
||---------------------------------|---------------------------------|
||---------------------------------|---------------------------------|

   E   E   E     S E   E   E   E     S S S S E   E   E   E   E   E
||---------------------------------|---------------------------------|
||---------8----10p8---------------|---------------------------------|
||-7-----------------------7-------|-------------7-------7---5-------|
||---------------------------------|-9p8h9p8h9-------9-------9-------|
||---------------------------------|-----------------------------10--|
||---------------------------------|---------------------------------|

   S S S S S S S S S S S S S S S S   S S S S S S S S S S S S S S S S
||---------------------------------|---------------------------------|
||t8p3h5p3t8p3h5p3t8p3h5p3t8p3h5p3-|t8p2h4p2t8p2h4p2t8p2h4p2t8p2h4p2-|
||---------------------------------|---------------------------------|
||---------------------------------|---------------------------------|
||---------------------------------|---------------------------------|
||---------------------------------|---------------------------------|

           |--3--|                           |--3--|
   E.    S E  E  E E.    S E.    S   E.    S E  E  E E.    S E.    S
||---------------------------------|---------------------------------|
||-3-------0-----5-3-------0-------|-3-------0-----5-3-------0-------|
||-4-------0-----5-4-------0-------|-4-------0-----5-4-------0-------|
||---------------------------------|---------------------------------|
||---------------------------------|---------------------------------|
||---------------------------------|---------------------------------|

   S S S S S S S S S S S S S S S S   S S S S S S S S S S S S S S S S
||t8p3h5p3t8p3h5p3t8p3h5p3t8p3h5p3-|t8p2h4p2t8p2h4p2t8p2h4p2t8p2h4p2-|
||---------------------------------|---------------------------------|
||---------------------------------|---------------------------------|
||---------------------------------|---------------------------------|
||---------------------------------|---------------------------------|
||---------------------------------|---------------------------------|

           |--3--|
   E.    S E  E  E E.    S Q         E.    S E.    S E.    S E.    S
||-3-------3-----5-6-------5-------|-3-------6-------3---------------|
||-5-------5-----6-8-------6-------|-5-------8-------5-------5-------|
||---------------------------------|-------------------------5-------|
||---------------------------------|---------------------------------|
||---------------------------------|---------------------------------|
||---------------------------------|---------------------------------|


|---PART 4:


   E   S S E   E   S S S S S S S  S   E   S S E   E   S S S S S S S S
||-------6-8---6-------------8-11-8-|-----------------------------1---|
||-9---9-----------9-------9--------|-------1-3---1-------------3---3-|
||-------------------8---8----------|-3---3-----------3-------3-------|
||---------------------10-----------|-------------------3-0-3---------|
||----------------------------------|---------------------------------|
||----------------------------------|---------------------------------|

                                             |--3--|
   E   S S E   E   S S S S S S S S   E.    S E  E  E E.    S E.    S
||-----------------------------4---|---------------------------------|
||-------4-6---4-------------6---6-|-3-------0-----5-3-------0-------|
||-6---6-----------6-------6-------|-4-------0-----5-4-------0-------|
||-------------------6---6---------|---------------------------------|
||---------------------8-----------|---------------------------------|
||---------------------------------|---------------------------------|

   Q.          E   Q.          E     E   S S E   E   S S S S E   E
||-3-----------4---5-----------4---|-8---------------------------6---|
||-5-----------2---3-----------2---|-----8-8-10--8-----8---------8---|
||---------------------------------|-----------------9---9-7-----9---|
||---------------------------------|-------------------------10--10--|
||---------------------------------|---------------------------------|
||---------------------------------|---------------------------------|
Login or Register to remove this ad.

5 comments on Main Theme

This is excellent. Is is also

This is excellent. Is is also slightly impossible to play. :P

... Totaly agree, best one i

5

... Totaly agree, best one i have found so far =3

o crap

crazy fast

Hey dude you should totally

Hey dude you should totally make this for a few different instruments, like in the actual intro! that would be sick. tab is awesome btw. except that first part that looks like:
E|-0--1--4-3--
B|-1--3--2-5--
G|------------
but it sounds like it should be:
E|-0--1--2-3--
B|-1--3--4-5--
G|------------
typo? iunno. anyways, it would be practically impossible for me to figure this out, so kudos.

At the top you say the tuning

At the top you say the tuning is E B G D A E, that is backwards. It should read E A D G B E, otherwise known as standard tuning.