Ads

Stage 4-2 (Ninja Gaiden) Guitar Tab

Submitted: Jun 21, 2017 by ltm_1988

0
Download | Listen
Game: Ninja Gaiden
Composer(s): Keiji Yamagishi
Style: Arrangement, Fingerstyle

AutoScroll: Slow | Medium | Fast
Stage 4-2
Ninja Gaiden
Keiji Yamagishi, Ryuichi Nitta
ltm_1988
6/21/2017

MIDI slowed from game speed

    E   E   E   E   E   E   E   E    
C#|---------------------------------|
G#|---------------------------------|
E||---------------------------------|
B||---------------------------------|
F#|---------------------------------|
C#|-0---0---0---0---0---0---0---0---|

    E   S S S S E   S S S S E   E     S S S S S S E   S S E   E   E  
C#|-----------------------------0---|---------------------------------|
G#|-----1-------3-------------------|-------------0---1---0-----------|
E||*2---2---2---2---0-2---0-2-------|-2-2-2-2-2---2-----2-----2~------|
B||*------2---2---------2-------2---|-------3---3---------3-------3---|
F#|-0---------------0---------------|---------------------------------|
C#|---------------------------------|-1---------------1---------------|

    E   S S S S E   S S S S E   E     S S S S E   S S E   E   Q      
C#|-----------------------------0---|---------------------------------|
G#|-0-------3---0-----0-----0-------|-0-0-0-0-0---1---3---1-----------|
E||-----2-0---0-2---2-2-0-2-2---0---|-----2---2---2-2-2---2---4~------|
B||---------------------------------|-------2-----------------6~------|
F#|---------------------------------|---------------------------------|
C#|-3---------------3---------------|-0-------------------------------|

    E   S S S S E   S S S S E   E     S S S S S S E   S S E   E   E  
C#|-----------------------------0---|---------------------------------|
G#|-----1-------3-------------------|-------------0---1---0-----------|
E||-2---2---2---2---0-2---0-2-------|-2-2-2-2-2---2-----2-----2~------|
B||-------2---2---------2-------2---|-------3---3---------3-------3---|
F#|-0---------------0---------------|---------------------------------|
C#|---------------------------------|-1---------------1---------------|

    E   S S S S E   S S S S E   E     S S S S E   S S E   E   Q    
C#|-----------------------------0---|---------------------------------|
G#|-0-------3---0-----0-----0-------|-0-0-0-0-0---1---3---1-----------|
E||-----2-0---0-2---2-2-0-2-2---0---|-----2---1---2-2-2---2---4~------|
B||---------------------------------|-------2-----------------6~------|
F#|---------------------------------|---------------------------------|
C#|-3---------------3---------------|-0-------------------------------|

    E   S S E   S S E   S S E   S S   E   E   E   E   E   E   E   S S
C#|---------------------------------|---------------------------------|
G#|---------------------------------|-----------------------------0---|
E||-2---2---0---0-------------------|-------------------------2-------|
B||-------2-------0-3---3---2~--2~--|-----2---2---2~------2-----------|
F#|-----------------------3-------2-|---------------------------------|
C#|-0-------3-------1-------0-------|-0---0---0---0---0-------3---3-3-|

    E   S S S S E   S S E   E   E     E   S S S S E   S S E   E   E  
C#|---------------------0-----------|---------------------------------|
G#|-1---0---1---------------3---1---|-3---1---3-----------1---0-------|
E||-----2-------2~----2-----2-------|-----2-------2~----2-----2---2---|
B||-------2---2---------2-------2---|-------3---3---------3-------3---|
F#|-0---------------0---------------|---------------------------------|
C#|---------------------------------|-1---------------1---------------|

    E   S S S S E   S S E   E   E     E   S S E   S S E   E   E   E  
C#|-------------3~------1---0-------|---------------------------------|
G#|---------0-------------------3---|-5~--------------1---0-------0---|
E||-0---2-0---0-2-----2-0---2---0---|-----2---2---2-2---------2~------|
B||---------------------------------|-------2-------------2-----------|
F#|---------------------------------|---------------------------------|
C#|-3---------------3---------------|-0-------------------------------|

    E   S S S S E   S S E   E   E     E   S S S S E   S S E   E   E  
C#|---------------------0-----------|---------------------------------|
G#|-1---0---1---------------3---1---|-3---1---3-----------1---0-------|
E||-----2-------2~----2-----2-------|-----2-------2~----2-----2---2---|
B||-------2---2---------2-------2---|-------3---3---------3-------3---|
F#|-0---------------0---------------|---------------------------------|
C#|---------------------------------|-1---------------1---------------|

    E   S S S S E   S S E   E   E     E   S S E   S S E   S S S S S S
C#|-------------3~------1---0-------|---------------------------------|
G#|---------0-------------------3---|-5~--------------1---0-----0-1-3-|
E||-0---2-0---0-2-----2-0---2---0---|-----2---2---2-2-------0-2~------|
B||---------------------------------|-------2-------------2-----------|
F#|---------------------------------|---------------------------------|
C#|-3---------------3---------------|-0-------------------------------|

    E   S E   S E   S S S S S S S S   E   S E   S E   S S S S S S S S 
C#|---------------------------------|---------------------------------|
G#|-1---0-1-----1---0-1-----3-1-0-1-|-1---0-1-----1---0-1-----3-1-0---|
E||-----2-----2-2-----2---2-2-------|-----2-----2-2-----2---2-2-----2-|
B||-------2---2---------2-------2---|-------3---3---------3-------3---|
F#|-0---------------0---------------|---------------------------------|
C#|---------------------------------|-1---------------1---------------|

    E   S E   S E   S S S S S S S S   S S S S S S S S S S S S S S S S
C#|-------------------------0-------|-------------------------0-------|
G#|-3---1-3---0-3---1-3---0---3-1-0-|-----------------1-0---------3---|
E||-----2-0---0-2-----2-0---2---0---|-2-0-----2---0-2-----2-0---------|
B||---------------------------------|-----2-3---2---------------------|
F#|---------------------------------|---------------------------------|
C#|-3---------------3---------------|-0---0---0---0---0---3-3-3-3-3-3-|

    E   S E   S E   S S S S S S S S   E   S E   S E   S S S S S S S S 
C#|---------------------------------|---------------------------------|
G#|-1---0-1-----1---0-1-----3-1-0-1-|-1---0-1-----1---0-1-----3-1-0---|
E||-----2-----2-2-----2---2-2-------|-----2-----2-2-----2---2-2-----2-|
B||-------2---2---------2-------2---|-------3---3---------3-------3---|
F#|-0---------------0---------------|---------------------------------|
C#|---------------------------------|-1---------------1---------------|

    E   S E   S E   S S S S S S S S   S S S S S S S S S S S S S S S S x3 W
C#|-------------------------0-------|-------------------------0-------||-5-
G#|-3---1-3---0-3---1-3---0---3-1-0-|-----------------1-0---------3---||-5-
E||-----2-0---0-2-----2-0---2---0---|-2-0-----2---0-2-----2-0--------*||-5-
B||---------------------------------|-----2-3---2--------------------*||-7-
F#|---------------------------------|---------------------------------||-7-
C#|-3---------------3---------------|-0---0---0---0---0---3-3-3-3-3-3-||-5-
Login or Register to remove this ad.