Ads

Dreams Dreams (NiGHTS: Into Dreams) Guitar Tab

Submitted: Nov 16, 2012 by Kabukibear (Last updated: Nov 16, 2012)

5
Average: 5 (14 votes)
Download | Listen
Game: NiGHTS: Into Dreams
Composer(s): Fumie Kumatani, Tomoko Sasaki, Naofumi Hataya
Style: Arrangement, Fingerstyle

AutoScroll: Slow | Medium | Fast
Dreams Dreams                                   
~Nights: Into Dreams~
Composed by: Tomoko Sasaki,
Naofumi Hataya,
Fumie Kumatani
Arranged by: Justin Lincoln

Drop D Tuning

     ^                       ^                      
     Q.     E  Q.     S S    E  E  E  E  Q    Q     
E||--2------------------0-|--2---------------------|
B||--3------3--L------3---|--3--3-----3--L---------|
G||--2------0--L----------|--2-----2--0--L----2----|
D||--0------2--L----------|-----------0--L---------|
A||---------0--L----------|--2---------------------|
D||-----------------------|-----------5--L---------|


  ^                                                   
  E  E    E  E  E  Q    S S    E.  S E  E  Q    Q     
--2--3--3g5--3--L--2------0-|--2---2------------5----|
--3----------3--L-------3---|--3---3----3--L---------|
--2----------0--L-----------|--2---2----0--L---------|
--0-------------------------|-----------0--L---------|
-------------0--L-----------|--2---2-----------------|
----------------------------|-----------5--L---------|


  ^                           ^                        
  E  E  E  E  E  E  E  S S    E  E  E  E  E  E  E  E   
--2----------------------0-|--2-----------------------|
--3-----3--3--L--------3---|--3--------3--L-----------|
--2--2-----0--L--0-----0---|--2-----2--0--L--0--------|
--0--------2--2-----2------|-----4-----0--0-----0-----|
-----------0--L------------|--2-----------------------|
---------------------------|-----------5--L--------5--|


                             ^           ^            
  E  E  E  E  E  E  E  E     E  E  E  E  E  E  E  E   
--------------------------|--------------0-----0-----|
--0-----3-----------0-----|--3-----3-----2-----2-----|
--0-----0-----------0-----|--0-----0-----2--2--------|
--2--2-----------2--------|--0--0--------------------|
--------------------------|--------------0--------0--|
--2--------2--2--------2--|--5--------5--------------|

SEGNO
  S S  E  S  S E  Q    S  S E     E.  S E  E  Q.     E   
----0h-2--0h-2-3--L----2p-0----|------------------------|
--3------------3--L---------3--|--2---3-----------------|
--2------------0--L------------|--2---2----2--L------2--|
--0----------------------------|-----------0--L---------|
---------------0--L------------|--2---2-----------------|
-------------------------------|-----------5--L---------|


  S S  E  S  S E  Q    S  S E     E.  S E  E  E  E  E  E   
----0h-2--0h-2-3--L----2p-0----|-----------5--L--------0--|
--3------------3--L---------3--|--2---3----0--L--8--7-----|
--2------------0--L------------|--2---2----0--L-----------|
--0----------------------------|--4---4-------------------|
---------------0--L------------|--2---2-------------------|
-------------------------------|-----------5--L-----------|


  S S  E  S  S E  Q    S  S E     E.  S E  E  E  E  E  E   
----0h-2--0h-2-3--L----2p-0----|--------------------0--5--|
--3------------3--L---------3--|--2---3----------3--------|
--2------------0--L------------|--2---2----2--L-----------|
--0----------------------------|-----------0--L-----------|
---------------0--L------------|--2---2-------------------|
-------------------------------|-----------5--L-----------|


  E  E  E  E  E  E  E  E     H          E  S E.  E   
--L--3--2--0-----0--2-----|----------------------5--|
--------------3--------3--|--5--------5g3----3------|
--------2-----0-----------|--2----------L-----------|
--------0-----------------|-------------------------|
-----0--------0-----------|--2----------L-----------|
--0-----------------------|-------------------------|


   E  E  E  E  Q    S   S  S  S     E  S S E  E  E  E.  E.   
--10----------------9h-10p-9----|-----------------------5---|
------------0--L-------------12-|--10----7-L--3--L--3-------|
---------0--7--L----------------|-------------2--L----------|
------0-------------------------|----------0--4--L----------|
--------------------------------|------0--------------------|
---5----------------------------|---0-----------------------|


   E  E  E  E   E  E.  E.     E  S S E  E  E  E.  E.   
--10------------L--9---7---|--5----2-L------------2---|
------------0---L----------|------------3--L--3-------|
---------0--7---L----------|------------2--L----------|
------0--------------------|---------0--4--L----------|
---------------------------|-----0--------------------|
---5-----------------------|--0-----------------------|


  E  E  E  E  E  E  E  E     E  E  E  E  E  E  E  E   
--5-----------------L--7--|--L--5--L--------------0--|
--------------------------|--------0-----------3-----|
--------0-----------------|--------------------2-----|
-----0-----------0--7-----|-----0-----------0--------|
--------------------------|--------------------------|
--2--------2--4--------4--|--5--------5--4--------4--|

                                             Da Coda
  Q    E  E  E  E  S S S  S    Q    E  E  Q    Q       E  E  E  E  Q    E  E   
--2----3--2--L-----L-3-2p-0-|--2----2-----1----5----|--0-----5----------------|
--0-------0--L---------0----|--3----3-----2----6----|--0--7--------3----3-----|
--0-------0--L-----0--------|--0----0-----0----6----|--0-----------3----3-----|
----------------2-----------|-----------------------|-------------------------|
----------------------------|--0-------0--0----0----|-------------------4--3--|
--2----------2--------------|-----------------------|--5--------5--4----------|


  E  E  E  E  E  E  E  E     E  E  E  E  E  E  E  E     E  E  E  E  E  E.  E.   
--0--2-----------------7--|--5-----3-----2-----3-----|--5--------5--5----------|
--3--------------2--3-----|--------0-----2-----2-----|--5-----5-----4--4---7---|
--------2-----1-----------|--------0-----------2-----|--5--5--------5--5-------|
--------------------------|-----0-----0-----2-----2--|-------------------------|
--2--------2--------------|--------------0-----------|--0--------0-------------|
--------------2-----------|--5-----------------------|--------------0----------|


  E  E  E  E  Q    E  E     E  E  E  E  E  E  E  E     E  E  E  E  E  E  E  E   
--0-----5----------2--0--|--L--2-----------------0--|--2-----3-----------2-----|
--0--7--------3----------|--3--------------2--3-----|--------0-----------2-----|
--0-----------3----3-----|--------2-----1-----------|--------0-----2--------2--|
-------------------------|--------------2-----------|-----0-----0-----2--L-----|
-------------------4-----|--2--------2--------------|--------------0-----------|
--5--------5--4----------|--------------2-----------|--5-----------------------|


                             ^                       ^                      
  E  E  S S  E  Q    Q       Q.     E  Q.     S S    E  E  E  E  Q    Q     
--0-----L-2p-0------------|--2------------------0-|--2---------------------|
--1-----L-------3---------|--3------3--L------3---|--3--3-----3--L---------|
--2-----L-------2---------|--2------0--L----------|--2-----2--0--L----2----|
--------0-----------------|--0------2--L----------|-----------0--L---------|
-----0---------------0----|---------0--L----------|--2---------------------|
--0-------------0---------|-----------------------|-----------5--L---------|


  ^                                   D.S. al Coda       CODA                          
  E  E    E  E  E  Q    S S    E.  S E  E  Q    Q       E  E  E  E  Q    E  E   
--2--3--3g5--3--L--2------0-|--2---2------------5----|--0-----5----------------|
--3----------3--L-------3---|--3---3----3--L---------|--0--7--------3----3-----|
--2----------0--L-----------|--2---2----0--L---------|--0-----------3----3-----|
--0-------------------------|-----------0--L---------|-------------------------|
-------------0--L-----------|--2---2-----------------|-------------------4--3--|
----------------------------|-----------5--L---------|--5--------5--4----------|


  E  E  E  E  E  E  E  E     E  E  E  E  E  E  E  E     E  E  E  E  E  E.  E.   
--0--2-----------------7--|--5-----3-----2-----3-----|--5--------5--5----------|
--3--------------2--3-----|--------0-----2-----2-----|--5-----5-----4--4---7---|
--------2-----1-----------|--------0-----------2-----|--5--5--------5--5-------|
--------------------------|-----0-----------2-----2--|-------------------------|
--2--------2--------------|--------------0-----------|--0--------0-------------|
--------------2-----------|--5--------5--------------|--------------0----------|


  E  E  E  E  Q    E  E     E  E  E  E  E  E  E  E     E  E  E  E  E  E  E  E   
--0-----5----------2--0--|--0--2-----------------0--|--2-----3-----------2-----|
--0--7--------3----------|--3--------------2--3-----|--------0-----------2-----|
--0-----------3----3-----|--------2-----1-----------|--------0-----2--------2--|
-------------------------|--------------2-----------|-----0-----0-----2--------|
-------------------4-----|--2--------2--------------|--------------0-----------|
--5--------5--4----------|--------------2-----------|--5-----------------------|


  E  E  E  E  E  E  E  E     E  S S E  S S E  E  E  E   
--0-----5--3--2--3--5--3--|--0----------------0--------|
--1-----------3-----------|-----3---3--0-3-L--------0--|
-----2--------2-----------|--0------0------------------|
--------------0-----------|----------------------------|
--------------------0-----|-------------------0--L-----|
--0-----------------------|--5----------------------5--|


                                |-3| |--3-|  |-3| |--3-|                
  E  E  S S E  E  S S S S E     E  S S  S S  E  S S  S S S  S E  E  E   
-----------------------------|--------------------------------0--------|
--L-----3---0----------------|------------0h-3--0--------2h-3----2--0--|
-----2----2----2-------------|-------0h-2----0----2p-0-----------------|
--------4---------4-2-L-0----|-----4-------------------4---------------|
-----------------------------|--------------------------------0--------|
--4------------4--0-------4--|--5-----------------5-----------------5--|


  S  S S  S S S S S E  E  E  S S    S  S  S  S S S  S S E  S  S S  S S S  
---------------------------------|---------------------------------------|
-------------------------------0-|--2h-3p-2p-0---0h-2---0----------------|
--2p-1-0h-2-----2------------2---|-------------2------2----2p-1-0h-2---2-|
------------2-----4-L-----L------|-------------2----------------4----2---|
---------------------------------|---------------------------------------|
--4---------L-4-L------4--0--4---|--2---------------2---4------------4---|


  S  S S  S  E  S  S  S S  S  S S  S S  S    E  S S E  E  E  E  E  E   
------------------------------------------|---------0--0--L--------0--|
-------------------------------------0h-2-|------------0--L--------0--|
--------------------------------0h-2------|--7--7-6----------6--7-----|
--4p-0------------------0h-2h-4-----------|---------------------------|
-------4p-0h-2--0h-2h-4-------------------|---------------------------|
--5-----------------------------L----5----|--6---------6--L--------6--|


  E  E  E  S S E  E  E  E       E  E  E  E  E  E  E  E   
--2--------0-2-0-----------||---0-----5-----3-----3-----|
--2-----2--2------2--------||---0--7--------3-----3-----|
-----3---------3-----3--2--||*--0-----------3-----3-----|
---------------------------||*--------------------------|
--1------------4-----------||---------------------4--3--|
---------------------4--3--||---5--------5--4--3--------|


  E  E  E  E  E  E  E  E     E  E  E  E  E  E  E  E   
--0--2-----------------7--|--5-----3-----2-----3-----|
--3--------------2--3-----|--------0-----2-----2-----|
--------2-----1-----------|--------0-----------2-----|
--------------------------|-----0-----------2-----2--|
--2--------2--------------|--------------0-----------|
--------------2-----------|--5--------5--------------|


              |----3----|                               
  E  E  E  E  Q    Q    Q       E  E  E  E  Q    E  E   
--5--------5--5----8----7----|--0-----5----------2--0--|
--5-----5-----4----7----7----|--0--7--------3----------|
--5--5--------5----8----8----|--0-----------3----3-----|
-----------------------------|-------------------------|
--0--------0-----------------|-------------------4-----|
--------------0--------------|--5--------5--4----------|


  E  E  E  E  E  E  E  E     E  E  E  E  E  E  E  E   
--L--2-----------------0--|--2-----3-----------2-----|
--3--------------2--3-----|--------0-----------2-----|
--------2-----1-----------|--------0-----2--0-----0--|
--------------2-----------|-----0-----0--------------|
--2--------2--------------|--------------0-----------|
--------------2-----------|--5-----------------------|

1ST Ending                     2nd Ending
  E  E  S S  E  E  Q    E       E  E  S S  E  H           H        E  E  E  E   
--0-----L-2p-0--------------||--0-----L-2p-0--3--------|--L--------L--------0--|
--1-----L-------3-----------||--1-----L-------4--------|--L--------L--2--3-----|
--0-----L-------2----------*||--0-----L-------5--------|--L--------L-----------|
--------0-------0----------*||--------0----------------|-----------------------|
-----0-------------0--------||-----0-------------------|-----------------------|
--0---------------------6---||--0-------------0--------|--L--------L-----------|


                             ^                  
  E  E  E  E  E  E  E  E     W                  
--2-----3-----------2-----|-------------------||
--------0-----------2-----|--3----------------||
--------0-----2--0--0-----|--2----------------||
-----0-----0--------------|--4----------------||
--------------0--------4--|--0----------------||
--5-----------------------|--0----------------||




Duration Legend
---------------
W - whole
H - half
Q - quarter
E - 8th
S - 16th
T - 32nd
X - 64th
. - note dotted
|-n-|  - n-tuplets


Tablature Legend
----------------
L - tied note
g - grace note
h - hammer on
p - pull off
^ - brush up

Login or Register to remove this ad.

9 comments on Dreams Dreams

This is actually from NiGHTS:

This is actually from NiGHTS: Into Dreams...but it wouldn't let me add the game :/

I think I fixed it. Does it

I think I fixed it. Does it look okay?

thanks :)

thanks :)

Whoa it gets kinda crazy

5

Whoa it gets kinda crazy towards the end. Haven't tried playing it yet but it looks pretty solid. Any day there's a new kabuki arrange is a good day.

Awesome arrangement Kabuki!

Awesome arrangement Kabuki! And such a happy song! ^^

You're totally right kara~

I've never told you this but

I've never told you this but I love you kabukibear. haha you've brought me so much joy over the years at this latest piece doesn't disappoint. Thanks for all the memories

:) Glad I could help. Enjoy

:)

Glad I could help. Enjoy it!

Ditto what everyone else said

5

Ditto what everyone else said pretty much, seeing a tab uploaded by you makes my day.

nights

5

song is so great without the vocals lol