Ads

Yonah Pluck Ver. 2 (Nier) Guitar Tab

Submitted: Oct 28, 2010 by hslesperance (Last updated: Aug 10, 2012)

5
Average: 5 (2 votes)
Download | Listen
Game: Nier
Composer(s): Keiichi Okabe, Kakeru Ishihama, Keigo Hoashi, Takafumi Nishimura
Style: 2 or more instruments, Transcription

AutoScroll: Slow | Medium | Fast
Yonah Pluck Ver. 2
Nier
Composed by Keiichi Okabe, Kakeru Ishihama, Keigo Hoashi, Takafumi Nishimura
Tabbed by hslesperance
10/28/10

Standard Tuning




Guitar 1

  W            W           W            W
|------------|-----------|------------|---------|
|------------|-----------|------------|---------|
|------------|-----------|------------|---------|
|------------|-----------|------------|---------|
|------------|-----------|------------|---------|
|------------|-----------|------------|---------|


  W            W            W            W
|------------|------------|------------|-------|
|------------|------------|------------|-------|
|------------|------------|------------|-------|
|------------|------------|------------|-------|
|------------|------------|------------|-------|
|------------|------------|------------|-------|


               |--3--|
    Q  Q  Q    E E   E Q   Q     a H.           W
||-----1--3--|-3h5p==3-3-------|--------------|-----------|
||o-4--------|-------------1---|-1s3----------|-----------|
||-----------|-----------------|--------------|-----------|
||-----------|-----------------|--------------|-----------|
||o----------|-----------------|--------------|-----------|
||-----------|-----------------|--------------|-----------|


  Q  Q   Q     Q   Q   a Q      H.           W
|-3--3---3---|-2---3---3s5---|-------------|----------|
|------------|---------------|--3----------|----------|
|------------|---------------|-------------|----------|
|------------|---------------|-------------|----------|
|------------|---------------|-------------|----------|
|------------|---------------|-------------|----------|


                |--3--|
  Q   Q   Q     E E   E +Q     Q     Q   Q   Q    H.
|-----1---3---|-3h5p==3-(3)--------|---------1--|-3----------|
|-4-----------|--------------------|-3---4------|------------|
|-------------|--------------------|------------|------------|
|-------------|--------------------|------------|------------|
|-------------|--------------------|------------|------------|
|-------------|--------------------|------------|------------|


  a Q  Q  Q    Q  Q    Q    a H.            W
|-2s3--3--3--|-3--2----3--|-3s5-----------|----------|
|------------|------------|---------------|----------|
|------------|------------|---------------|----------|
|------------|------------|---------------|----------|
|------------|------------|---------------|----------|
|------------|------------|---------------|----------|


  Q  Q   Q     H       a Q     Q  Q   Q     a H.
|-6--5-------|---------5h6---|-5--3-------|-----------------|
|--------3---|-4-------------|--------1---|-1s3-------------|
|------------|---------------|------------|-----------------|
|------------|---------------|------------|-----------------|
|------------|---------------|------------|-----------------|
|------------|---------------|------------|-----------------|


  Q  Q   Q     a H       Q     H.           Q   Q   Q
|-3--1-------|-----------3---|-3----------|-2---3---5---|
|------------|---------------|------------|-------------|
|--------3---|-3s5-----------|------------|-------------|
|------------|---------------|------------|-------------|
|------------|---------------|------------|-------------|
|------------|---------------|------------|-------------|


  a Q   Q   Q     H      Q    Q  Q   Q    a H.
|-5h6---5-------|--------6--|-5--3------|----------------|
|-----------3---|-4---------|--------1--|-1s3------------|
|---------------|-----------|-----------|----------------|
|---------------|-----------|-----------|----------------|
|---------------|-----------|-----------|----------------|
|---------------|-----------|-----------|----------------|


  a H.          Q  Q   a  Q     H.            Q   Q   a Q
|-1s3---------|-3--5---5h=6---|-5-----------|-5---6---6s8---|
|-------------|---------------|-------------|---------------|
|-------------|---------------|-------------|---------------|
|-------------|---------------|-------------|---------------|
|-------------|---------------|-------------|---------------|
|-------------|---------------|-------------|---------------|


  H.           Q   E E  E E   a  Q.     +S  S +Q     +H      Q
|-6----------|-------5--6-8-|-8s10-----(10)--------|------------|
|------------|--------------|---------------8-(8)--|-(8)--------|
|------------|--------------|----------------------|------------|
|------------|--------------|----------------------|------------|
|------------|--------------|----------------------|------------|
|------------|--------------|----------------------|------------|


  W           H        E  E   Q  H        W
|-----------|----------6--5-|-----------|------------||
|-----------|---------------|-6--4------|-----------o||
|-----------|---------------|-----------|------------||
|-----------|---------------|-----------|------------||
|-----------|---------------|-----------|-----------o||
|-----------|---------------|-----------|------------||




Guitar 2

  E E E Q  E   Q  E Q  E   E E E Q  E   Q  H
|-------1----|------1----|-------6----|---------|
|-------1----|-1-------1-|-------8----|-8-------|
|-----0------|-0---------|-----7------|---------|
|---3------3-|----3------|---8------8-|----8----|
|------------|-----------|-6----------|---------|
|-3----------|-----------|------------|---------|


  E E E Q  E   Q.   E E E   E E E Q  E   H.
|-------1----|--------1---|-------6----|-------|
|-------1----|-1------1---|-------8----|-8-----|
|-----0------|-0----------|-----7------|-------|
|---3------3-|------3---3-|---8------8-|-------|
|------------|------------|-6----------|-------|
|-3----------|------------|------------|-------|


    Q  H       E   Q     Q   E     Q   E Q  E   Q  Q  Q
||-----------|-----------1-----|---------1----|-5-----1---|
||o----------|-----------1-----|---------3----|-----------|
||-----0-----|-----------------|-------2----2-|----2------|
||-----1-----|-----3---------3-|--------------|-----------|
||o-3--------|-----------------|---1----------|-----------|
||-----------|-1---------------|--------------|-----------|


  Q  E Q   E   E E E Q     E    E  Q  Q  E   Q  Q  Q
|------------|-------2-------|--------3----|-3--------|
|-0----0-----|-----3-------3-|-^3-----3----|-------3--|
|----0-0---0-|---2-----------|-----0-----0-|----0--0--|
|------------|-0-------------|-------------|----------|
|-0----------|---------------|-------------|----------|
|------------|---------------|-^3----------|----------|


  E E E E E E   E   E    E  E +Q     E E E E Q    E  Q  Q.
|-----1-------|--------------------|-1----------|-------6----|
|-----1---1---|-------------1-(1)--|------------|----3-------|
|---0---0-----|----------2--2-(2)--|---3---3----|------------|
|-----------3-|-----3--------------|---------0--|-1----------|
|-3-----------|--------------------|-1---3------|------------|
|-------------|-1------------------|------------|------------|


    Q  Q  Q    Q  E Q.        Q   E E E E   Q  Q  Q
|------------|------5-----|-----------3---|-2--------|
|---------3--|------------|---------3---3-|-------3--|
|---------3--|----2-------|-------2-------|----2-----|
|------2-----|------------|---0-----------|----------|
|------------|-0----------|---------------|----------|
|---0--------|------------|---------------|----------|


  Q  E E E E   E E E Q     E   Q  E Q   E     E  E E E +Q
|------------|-------3-------|------1---5-|----------5-(5)--|
|------3-----|-----1---------|----1-------|--------3-3-(3)--|
|------3-----|---0---------0-|------------|------2----------|
|----3---3-5-|---------------|-3----------|---0-------------|
|------------|-3-------------|------------|-----------------|
|-3----------|---------------|------------|-----------------|


  Q  E Q   E     E E E Q   E   Q   Q  E E   E E E E E E
|------3-----|---------4-----|--------3---|-------------|
|------3-----|-------1-4-----|------------|-------------|
|----3-----3-|-----1-------1-|-----2----2-|---2---0---2-|
|-1----------|---------------|-0----------|-0---2---4---|
|------------|---------------|------------|-------------|
|------------|---4-----------|------------|-------------|


    E E E Q   E   Q  E E Q    Q  E E Q      E  E E E E E
|---------3-----|-----------|------1-5--|----------6-----|
|---------3-----|------4----|----1------|--------3-6-6---|
|-----0-3-----0-|----0-3-0--|-----------|------3-------3-|
|---------------|-----------|-3---------|----------------|
|---------------|-3---------|-----------|----------------|
|---3-----------|-----------|-----------|---6------------|


    Q   Q  Q    Q  E E   +Q     Q   E E E E   E E E Q     E
|----------3--|---------------|---------5---|-------5-------|
|----------4--|------3---(3)--|-------6---6-|-----4-------4-|
|-------3-----|----3----------|-----5-------|---5-----------|
|---1---------|---------------|-3-----------|-4-------------|
|-------------|---------------|-------------|---------------|
|-------------|-0-------------|-------------|---------------|


  Q   E Q  E   E Q   Q.          Q   E   Q.           Q   Q  Q
|-------1----|-1------------|------------3---------|--6------3--|
|-------1----|-------1------|------------3---------|------------|
|------------|--------------|--------3-------------|------3-----|
|-----3----3-|---3----------|----1-----------------|------------|
|------------|--------------|----------------------|------------|
|-3----------|--------------|----------------------|------------|


  Q  E Q  E   E E E E +Q      Q  E Q  E   Q  Q  Q
|-----------|-1-------------|------6----|-6-----3----||
|------1----|-------1-(1)---|------6----|-----------o||
|-----------|-----3---------|----3----3-|----3-------||
|----3----3-|---3-----------|-----------|------------||
|-----------|---------------|-6---------|-----------o||
|-3---------|---------------|-----------|------------||


h - hammer on
s - slide

W - whole
H - half
Q - quarter
E - 8th
S - 16th
a - acciaccatura
+ - note tied to previous
. - note dotted

Irregular groupings are notated above the duration line
Login or Register to remove this ad.