Ads

Song of the Ancients - Devola (Nier) Guitar Tab

Submitted: Nov 04, 2010 by hslesperance (Last updated: Aug 10, 2012)

5
Average: 5 (3 votes)
Download | Listen
Game: Nier
Composer(s): Keiichi Okabe, Kakeru Ishihama, Keigo Hoashi, Takafumi Nishimura
Style: 2 or more instruments, Transcription

AutoScroll: Slow | Medium | Fast
Song of the Ancients - Devola
Nier
Composed by Keiichi Okabe, Kakeru Ishihama, Keigo Hoashi, Takafumi Nishimura
Lyrics & Vocals by Emi Evans
Tabbed by hslesperance
10/4/10

Standard Tuning

There is an areggiated chord at the beginning of some measures.
That is the third guitar that I didn't bother tabbing.

Be sure to listen to SotA - Fate. It sounds much better, but is not guitar oriented.




Guitar 1

  W                       W
|-----------------------|--------------------|
|-----------------------|--------------------|
|-----------------------|--------------------|
|-----------------------|--------------------|
|-----------------------|--------------------|
|-----------------------|--------------------|


    Q  Q  W             H     Q  Q  Q  Q    W.                   +H.        H.
||--------------------|-------------------|--------------------|-----------------------|
||o-3--4--4-----------|-------4--3--------|--------------------|-----------------------|
||--------------------|-------------3-----|-5------------------|-(5)-------------------|
||--------------------|----------------5--|--------------------|-----------------------|
||o-------------------|-------------------|--------------------|-----------------------|
||--------------------|-------------------|--------------------|-----------------------|


  Q  Q  W             H     Q  Q  Q  Q    W.                   +H      W
|-------------------|-------------------|-3------------------|-(3)-------------------|
|-3--4--4-----------|-------4--3--------|--------------------|-----------------------|
|-------------------|-------------3-----|--------------------|-----------------------|
|-------------------|----------------5--|--------------------|-----------------------|
|-------------------|-------------------|--------------------|-----------------------|
|-------------------|-------------------|--------------------|-----------------------|


  Q  Q  W             H     Q  Q  Q  Q    Q  Q  W             +H.        H.
|-------3-----------|-------4--3--------|-------------------|------------------------|
|-------------------|-------------6--3--|-3--4--4-----------|-(4)--------------------|
|-------------------|-------------------|-------------------|------------------------|
|-5--6--------------|-------------------|-------------------|------------------------|
|-------------------|-------------------|-------------------|------------------------|
|-------------------|-------------------|-------------------|------------------------|


  Q  Q  W             H     Q  Q  Q  Q    W.                   W
|-------------------|-------------------|--------------------|---------------------|
|-3--4--4-----------|-------4--3--------|--------------------|---------------------|
|-------------------|-------------3-----|-5------------------|---------------------|
|-------------------|----------------5--|--------------------|---------------------|
|-------------------|-------------------|--------------------|---------------------|
|-------------------|-------------------|--------------------|---------------------|


  Q   Q  W              H     Q  Q  Q  Q    W.                  +H.       H.
|--------------------|--------------------|-------------------|-----------------------|
|-3---4--4-----------|--------4--3--------|-------------------|-----------------------|
|--------------------|--------------3-----|-5-----------------|-(5)-------------------|
|--------------------|-----------------5--|-------------------|-----------------------|
|--------------------|--------------------|-------------------|-----------------------|
|--------------------|--------------------|-------------------|-----------------------|


  Q  Q  W              H      Q   Q   Q  Q    W.                   +H.        H.
|-------------------|-----------------------|-3------------------|-(3)--------------|
|-3--4--4-----------|---------4---3---------|--------------------|------------------|
|-------------------|-----------------3-----|--------------------|------------------|
|-------------------|--------------------5--|--------------------|------------------|
|-------------------|-----------------------|--------------------|------------------|
|-------------------|-----------------------|--------------------|------------------|


  Q  Q  W             H     Q  Q  Q  Q    Q  Q  W             +H.        H.
|-------3-----------|-------4--3--------|-------------------|---------------------|
|-------------------|-------------6--3--|-3--4--4-----------|-(4)-----------------|
|-------------------|-------------------|-------------------|---------------------|
|-5--6--------------|-------------------|-------------------|---------------------|
|-------------------|-------------------|-------------------|---------------------|
|-------------------|-------------------|-------------------|---------------------|


  Q  Q  W             H    Q  Q  Q  Q    W.                  W           H
|-------------------|------------------|-------------------|---------------------|
|-3--4--4-----------|------4--3--------|-------------------|---------------------|
|-------------------|------------3-----|-5-----------------|-4-------------------|
|-------------------|---------------5--|-------------------|---------------------|
|-------------------|------------------|-------------------|---------------------|
|-------------------|------------------|-------------------|---------------------|


  W          +Q   a Q    H     Q  Q  Q  Q    Q  a Q  W             H     Q  Q  Q  Q
|-3----------(3)--3h4--|-3-----4--3--------|---------------------|----------------3--|
|----------------------|-------------6--3--|-3--3h4--4h==========|=5--------5--6-----|
|----------------------|-------------------|---------------------|-------------------|
|----------------------|-------------------|---------------------|-------------------|
|----------------------|-------------------|---------------------|-------------------|
|----------------------|-------------------|---------------------|-------------------|


  Q  Q  H     Q  Q    Q  Q  H     Q  a Q    W.                   +H.       H.
|-6--4--4-----------|-6--4--4--------3h4--|-3------------------|-(3)------------------|
|-------------------|---------------------|--------------------|----------------------|
|----------------5--|-------------5-------|--------------------|----------------------|
|-------------------|---------------------|--------------------|----------------------|
|-------------------|---------------------|--------------------|----------------------|
|-------------------|---------------------|--------------------|----------------------|


  W           +Q   a Q    H     Q  Q  Q  Q    Q  a Q  W             H     Q  Q  Q  Q
|-3-----------(3)--3h4--|-3-----4--3--------|---------------------|----------------3--|
|-----------------------|-------------6--3--|-3--3h4--4h==========|=5--------5--6-----|
|-----------------------|-------------------|---------------------|-------------------|
|-----------------------|-------------------|---------------------|-------------------|
|-----------------------|-------------------|---------------------|-------------------|
|-----------------------|-------------------|---------------------|-------------------|


  Q  Q  H     Q  Q    Q  Q  H     Q  Q    W           H       H.      H     Q
|-6--4--4-----------|-4--3--3-----------|-------------------|---------3----------|
|-------------------|-------------6--3--|-4-----------------|-6------------------|
|----------------5--|-------------------|-------------------|--------------------|
|-------------------|-------------------|-------------------|--------------------|
|-------------------|-------------------|-------------------|--------------------|
|-------------------|-------------------|-------------------|--------------------|


  W           +Q   E E   H     Q  Q  Q  Q    Q  Q  W             H     Q  Q  Q  Q
|-3-----------(3)--4-3-|-3-----4--3--------|-------------------|----------------3----|
|----------------------|-------------6--3--|-3--4--4h==========|=5--------5--6-------|
|----------------------|-------------------|-------------------|---------------------|
|----------------------|-------------------|-------------------|---------------------|
|----------------------|-------------------|-------------------|---------------------|
|----------------------|-------------------|-------------------|---------------------|


  Q  Q  a H     Q  Q    Q  Q  a H     Q  Q    W.                   +W            H
|-6--4--3h4-----------|-6--4--3h4--------4--|-3------------------|-(3)-----------------|
|---------------------|---------------------|--------------------|---------------------|
|------------------5--|---------------5-----|--------------------|---------------------|
|---------------------|---------------------|--------------------|---------------------|
|---------------------|---------------------|--------------------|---------------------|
|---------------------|---------------------|--------------------|---------------------|


  W           +Q   E E   H     Q  Q  Q  Q    Q  a Q  W             H     Q  Q  Q  Q
|-3-----------(3)--4-3-|-3-----4--3--------|---------------------|----------------3---|
|----------------------|-------------6--3--|-3--3h4--4h==========|=5--------5--6------|
|----------------------|-------------------|---------------------|--------------------|
|----------------------|-------------------|---------------------|--------------------|
|----------------------|-------------------|---------------------|--------------------|
|----------------------|-------------------|---------------------|--------------------|


  Q  Q  H     Q  Q    Q  Q  H     Q  Q    W.                   +H.        H.
|-6--4--4-----------|-4--3--3-----------|--------------------|-------------------------||
|-------------------|-------------6--3--|-4------------------|-(4)--------3-----------o||
|----------------5--|-------------------|--------------------|-------------------------||
|-------------------|-------------------|--------------------|-------------------------||
|-------------------|-------------------|--------------------|------------------------o||
|-------------------|-------------------|--------------------|-------------------------||




Guitar 2


  Q  Q  Q  Q   Q    Q     Q   Q    Q   H.
|-------6-----------6---|----------6---------|
|-3--4-----3---4--------|-3---4--------------|
|----------3--(3)--(3)--|-3--(3)--(3)--5-----|
|-----------------------|--------------------|
|-----------------------|--------------------|
|-----------------------|--------------------|


    Q  Q  Q  Q  Q  Q    Q  Q  Q  Q  Q  Q    Q   Q  Q  Q  Q  Q     Q   Q  Q  Q   Q  Q
||--------------------|-------------------|--------------------|--3--------------------|
||o----------4--------|----------4--------|-----------4--------|------------4----------|
||--------3-----3-----|-------3-----3-----|--------5-----5-----|---------5------5------|
||-----5-----------5--|----5-----------5--|-----5-----------5--|------5------------5---|
||o-------------------|-3-----------------|--------------------|-----------------------|
||--------------------|-------------------|--------------------|-----------------------|


  Q  Q  Q  Q  Q  Q    Q  Q  Q  Q  Q  Q    Q   Q  Q  Q  Q  Q     Q   Q  Q  Q  Q  Q
|----------3--------|-3-----------------|--------------------|--3--------------------|
|-------------------|----------3--------|-----------4--------|------------4----------|
|-------3-----3-----|-------3-----3-----|--------5-----5-----|---------5-----5-------|
|----5-----------5--|----5-----------5--|-----5-----------5--|------5-----------5----|
|-------------------|-------------------|--------------------|-----------------------|
|-------------------|-------------------|--------------------|-----------------------|


  Q  Q  Q  Q  Q  Q    Q  Q  Q  Q  Q  Q    Q  Q  Q  Q  Q  Q     Q   Q  Q  Q   Q  Q
|-------------------|----------------3--|----------3--------|------------6-----------|
|----------1--------|-------1--0--------|-------------------|------------8-----------|
|-------1-----1--0--|-------------------|-------3-----3-----|---------8------8-------|
|----1--------------|----3--------3-----|----5-----------5--|------8------------8----|
|-------------------|-------------------|-------------------|------------------------|
|-------------------|-------------------|-------------------|------------------------|


  Q  Q  Q  Q  Q  Q    Q  Q  Q  Q  Q  Q    Q   Q  Q  Q  Q  Q    Q  Q  Q  Q  Q  Q
|-------------------|----------3--------|-----------1--------|----------3----------|
|----------4--------|----------4--------|--------------------|-------0-----0-------|
|-------5-----5-----|-------5-----5-----|--------1-----1-----|----0-----------0----|
|----5-----------5--|----5-----------5--|-----1-----------1--|---------------------|
|-------------------|-------------------|--------------------|---------------------|
|-------------------|-------------------|--------------------|---------------------|


  H.        Q  Q  Q     Q  Q  Q  H     Q    Q   Q  Q  H    Q     H     Q  Q   Q  Q
|--------------------|-10--------6--------|-------------------|--3--------------------|
|-----------4--------|--------8-----------|-----------4-------|-----------4-----------|
|--------------3-----|-----8-----------8--|--------5----------|--------5------5-------|
|-----------------5--|--------------------|-----5----------5--|------------------5----|
|--------------------|--------------------|-------------------|-----------------------|
|--------------------|--------------------|-------------------|-----------------------|


  H     Q  Q  Q  Q     Q  Q   Q   H.          Q   Q  Q  Q  Q  Q     Q   Q  Q  H.
|----------3--------|-10--------------------|--------------------|--3---------------|
|-------------------|------------11---------|-----------4--------|------------4-----|
|----------------3--|-----8-----------------|--------5-----5-----|---------5--------|
|-------5-----5-----|-----------------------|-----5-----------5--|------5-----------|
|-------------------|--------10-------------|--------------------|------------------|
|-------------------|-----------------------|--------------------|------------------|


  Q  Q  Q  Q  Q  Q    Q  Q  Q  Q  Q  Q    Q  Q  Q  Q  Q  Q     Q   Q  Q  Q   H
|-------------------|-------------------|----------6--------|------------3--------|
|----------1--------|-------1--0--------|-------4-----------|---------4------4----|
|-------1-----1-----|-------------------|-------------------|------3--------------|
|----1-----------1--|----3--------3--0--|----5--------5-----|---------------------|
|-------------------|-------------------|----------------3--|---------------------|
|-------------------|-------------------|-------------------|---------------------|


  H     Q  Q  Q  Q    H    Q  Q  Q  Q    Q   Q  Q  Q  H      Q  Q  Q  Q  Q  Q
|----------3--------|---------3--------|-----------1-------|----------3----------|
|-------------------|------4-----4-----|-----------1-------|-------------3-------|
|-------5-----5-----|---------------5--|--------1-----1----|----------------4----|
|----------------5--|------------------|-----1-------------|----5----------------|
|-------------------|------------------|-------------------|-------5-------------|
|-------------------|------------------|-------------------|---------------------|


  H    Q  Q   Q     Q    Q  Q  Q  Q  Q  Q    Q    Q  Q  Q  Q  Q    Q  Q  Q  Q  Q  Q
|---------3------------|-------------------|------------6--------|-------------------|
|-------------4--------|----------6--------|---------4--4--4-----|-5--------5--------|
|-------------------3--|-------4-----4-----|------3--3-----3--3--|-------3-----3-----|
|------5---------------|----5-----------5--|---------------------|----5-----------5--|
|----------------------|-------------------|---------------------|-------------------|
|----------------------|-------------------|---------------------|-------------------|


  Q  Q  Q  Q  Q  Q    Q  Q  Q  Q  Q    Q    Q   Q  Q  Q  Q  Q     Q   H    Q   Q  Q
|----------1--------|----------3----------|-----------1--------|------------------3---|
|----------1--------|-------4-----4-------|--------1-----1-----|-----------3---1------|
|-------1-----1-----|----3-------------3--|-----1-----------1--|----------------------|
|----1-----------1--|---------------------|--------------------|------3---------------|
|-------------------|---------------------|--------------------|----------------------|
|-------------------|---------------------|--------------------|----------------------|


  Q  Q  Q  Q   Q     Q    Q  Q  Q  Q  Q  Q    Q    Q  Q  Q  Q  Q    Q  Q  Q  Q  Q  Q
|-----------------------|-------------------|------------6--------|-------------------|
|----------4------------|----------6--------|---------4--4--4-----|-5--------5--------|
|-------3------3--------|-------4-----4-----|------3--3-----3--3--|-------3-----3-----|
|----5---------------5--|----5-----------5--|---------------------|----5-----------5--|
|-----------------------|-------------------|---------------------|-------------------|
|-----------------------|-------------------|---------------------|-------------------|


  Q  Q  Q  Q  Q  Q    H     Q  Q  H       Q  Q  Q  Q  Q  Q    W          Q  Q
|----------1--------|----------3--------|----------3--------|--------------------|
|----------1--------|----------3--------|----------4--------|--------------------|
|-------1-----1-----|-------4-----4-----|-------5-----5-----|---------------4----|
|----1-----------1--|-------------------|----5-----------5--|------------5-------|
|-------------------|-------------------|-------------------|--------------------|
|-------------------|-------------------|-------------------|--------------------|


  Q  Q  Q  Q   Q   Q     Q  Q  Q  Q  Q  Q    Q  Q  Q  Q  Q  Q    Q  Q  Q  Q  Q  Q
|----------------------|-------------------|----------6--------|---------------------|
|----------4-----------|----------6--------|-------4--4--4-----|-5--------5----------|
|-------3------3-------|-------4-----4-----|----3--3-----3--3--|-------3-----3-------|
|----5-------------5---|----5-----------5--|-------------------|----5-----------5----|
|----------------------|-------------------|-------------------|---------------------|
|----------------------|-------------------|-------------------|---------------------|


  Q  Q    Q  Q  Q  Q    Q  Q    Q  Q  Q  Q    Q   Q  Q  Q  Q  Q     Q   Q  Q  Q  Q  Q
|------------1--------|------------3--------|-----------1--------|------------3--------|
|------------1--------|---------4-----4-----|--------1-----1-----|------------3--------|
|---------1-----1-----|----3-------------3--|-----1-----------1--|---------4--------4--|
|----1-------------1--|-1-------------------|-0------------------|------5--------5-----|
|---------------------|---------------------|--------------------|---------------------|
|---------------------|---------------------|--------------------|---------------------|


  Q  Q  Q  Q   Q   Q     Q  Q  Q  Q  Q  Q    Q    Q  Q  Q  Q  Q    Q  Q  Q  Q  Q  Q
|----------------------|-------------------|------------6--------|--------------------|
|----------4-----------|----------6--------|---------4--4--4-----|-5--------5---------|
|-------3------3-------|-------4-----4-----|------3--3-----3--3--|-------3------------|
|----5-------------5---|----5-----------5--|---------------------|----5--------5--2---|
|----------------------|-------------------|---------------------|--------------------|
|----------------------|-------------------|---------------------|--------------------|


  Q  Q  Q  Q  Q  Q    H     Q  Q  H       Q   Q  Q  Q  Q  Q     Q   Q  Q  Q   Q  Q
|----------1--------|----------3--------|-----------3--------|-------------------3-----||
|----------1--------|----------3--------|-----------4--------|------------------------o||
|-------1-----1-----|-------4-----4-----|--------5-----5-----|--5------5--4------------||
|----1-----------1--|-------------------|-----5-----------5--|------3---------3--------||
|-------------------|-------------------|--------------------|------------------------o||
|-------------------|-------------------|--------------------|-------------------------||

h - hammer on

W - whole
H - half
Q - quarter
E - 8th
a - acciaccatura
+ - note tied to previous
. - note dotted
Login or Register to remove this ad.

2 comments on Song of the Ancients - Devola

OMFG! You really did it!!!

5

OMFG! You really did it!!! Thanks Hsl! <3

Amazing!

5

I didn't even realize there was more than one guitar playing xD
If I ever meet you in person, the best reward I can give you for this is to bake you cookies, I'm sorry, you deserve so much more ;_;