Dispossession Pluck Ver. (Nier) Guitar Tab

Submitted: Oct 26, 2010 by hslesperance (Last updated: Aug 10, 2012)

5
Average: 5 (4 votes)
Download | Listen
Game: Nier
Composer(s): Keiichi Okabe, Kakeru Ishihama, Keigo Hoashi, Takafumi Nishimura
Style: Fingerstyle, Transcription

AutoScroll: Slow | Medium | Fast
Dispossession Pluck Ver.
Nier
Composed by Keiichi Okabe, Kakeru Ishihama, Keigo Hoashi, Takafumi Nishimura
Tabbed by hslesperance
10/26/10

Stanard Tuning


   H    H       H    H       H     H       H    H
|-^2----0----|------------|-^0----------|------------|
|------------|-^3----1----|-------^3----|-^1----0----|
|-^0---------|-^2---------|-^0----------|------------|
|------------|-^2---------|-^0----^4----|-^0---------|
|------------|-^0---------|-------------|------------|
|-^0---------|------------|-------------|-^3---------|


   H     Q  Q     Q  Q   Q  Q     H     H       H    H
|--------------|--------^0--2--|-^3----^2----|-^0---------|
|-^1----^0-----|---------------|-^1----^2----|-------4----|
|-^2--------2--|-^2--0--^2-----|-^0----------|------------|
|-^2----^1-----|-^2-----^0-----|-------^4----|-^4---------|
|-------^2-----|-^2------------|-^3----------|-^2---------|
|-^0-----------|-^0------------|-------^2----|------------|


   H    H       E E E E  H       H     H      E E E E  H
|-^2----0----|----------------|-^0----------|---------------|
|------------|-^3-----3-^1----|-------^3----|-1-----1-^0----|
|-^0---------|------0---^2----|-^0----------|-----0---------|
|------------|-^2-2-----^2----|-^0----^4----|-0-0-----^0----|
|------------|-^0-------^0----|-------------|---------------|
|-^0---------|----------------|-------------|-3-------^3----|


  H     Q  Q    E S. T Q   Q  Q     H     H      E E E E  H
|-------------|-----------^0--2--|-^3----^2----|-0-----0-------|
|-1----^0-----|------------------|-^1----^2----|-----0---^4----|
|----------2--|-2------0--^0-----|-^0----------|---------------|
|-2----^1-----|-2----2-2--^0-----|-------^4----|-4-4-----^4----|
|------^2-----|---2--------------|-^3----------|-2-------^2----|
|-2-----------|-0----------------|-------^2----|---------------|


   E E E E E E E E   E E E E E E E E   E E E E E E Q    E E E E E E E E
|-^2-------0-------|-----------------|-0--------------|-----------------|
|------0-------0---|-3-------1-------|-----1---3---3--|-1-----1-0-------|
|-^0---0-------0---|-2---0-------0---|-0-0---0---0----|-----0-------0---|
|----2---2---2---2-|---2---2---2---2-|-0-------4------|-0-0-----0-0---0-|
|------------------|-0---------------|----------------|-----------------|
|-^0---------------|-----------------|----------------|-3-------3-------|


  E E E E E E E E   E E E E E E E E   E E E E E E E E   E E E E E E E E
|-----------------|---------0---2---|-3---7-3-2-------|-0-----0---------||
|-1-----1-0-------|---------------0-|-----0---2---2---|-----0---4---0---||
|-2---2-------2---|-2---0---2-------|---0---------3---|-----------------||
|---2-----1-1---1-|-2-------0-------|-----------4---4-|---4-------4---4-||
|---------2-------|---2---2---2-----|-3---------------|-2-------2-------||
|-0---------------|-----------------|---------2-------|-----------------||

W - whole
H - half
Q - quarter
E - 8th
S - 16th
T - 32nd
. - note dotted
Login or Register to remove this ad.

2 comments on Dispossession Pluck Ver.

ANother Nier song to the site

5

ANother Nier song to the site :) Thanks for the tab! Theres a few other guitar songs from the games that could be tabbed!

Yes, I plan on doing at least

Yes, I plan on doing at least two more songs. Such a great soundtrack!