Ads

Voice of No Return (NieR: Automata) Guitar Tab

Submitted: Jul 28, 2021 by guitarsvd (Last updated: Aug 07, 2021)

5
Average: 5 (2 votes)
Download | No audio :(
Game: NieR: Automata
Composer(s): Keiichi Okabe, Keigo Hoashi, Kuniyuki Takahashi
Style: Arrangement, Fingerstyle
Series: NieR

Click here for a video example.

AutoScroll: Slow | Medium | Fast
                              Voice of No Return                                


                                                          Cecil Chau (GuitarSVD)
Acoustic Guitar (Nylon)



                               ^                              
                               |----3----|    |----3----|     
     Q    E  E  E  E  E  E     Q    Q    Q    Q    Q    Q     
E||-------------------7--8--|--7----4------------------------|
B||--5----------------------|--5---------5-------------------|
G||--5----5-----x--5--------|--4--------------4----5----7----|
D||--9----9-----x--9--------|-----------------4--------------|
A||--0-------0--------------|--------------------------------|
E||-------------------------|--4-----------------------------|


  Q    E  E  E  E  Q       Q    E  E  E  E  Q       Q.     E  E  E  E  E   
--0----------------0----|------------------------|---------------------3--|
--1----1--------1-------|--3----------------0----|--1------1-----1--L-----|
----------0--x--0-------|--2----2--------2-------|---------2--x--2--L-----|
-------------x----------|--4----4-----x----------|--0---------x-----0-----|
------------------------|-------------x----------|------------------------|
--3---------------------|--2-------2-------------|------------------------|


  Q    E  E  E  E  Q       Q    E  E  E  Q.        Q    H.            
------------------------|--0--------------------|-------3------------|
--1----------x--1--3----|--0----0--------0------|--0-----------------|
-------2-----x----------|--2----2-----x--2------|--1-----------------|
--0-------0--------0----|-------------x---------|--------------------|
------------------------|-----------------------|--------------------|
------------------------|--0-------0------------|--0-----------------|


  Q    E  E  E  E  E  E     E  E  E  E  Q    Q       Q    Q    E  Q    E   
-------------------0--7--|--L----------------5----|--0----1----3--5-------|
--0----1--------3--------|-----5--------5---------|--3---------3-------1--|
--2----0-----x-----------|-----4--x-----4---------|--3---------3----------|
--2----------x-----------|--------x---------------|-----------------------|
--0-------0--------------|------------------------|------------3----------|
-------------------------|--4--------4--L---------|--3--------------------|


  E  E  E  E  Q    Q       Q    E  E  E  E  E  E     E  E  E  E  Q    Q     
------------------------|----------------5-----3--|--L---------------------|
--L--1-------------1----|-------0-----1-----x--0--|--L--3--------1----0----|
-----2--x-----2----2----|--2----2-----2-----x-----|-----0--x-----0----0----|
-----3--x-----3---------|--0-------0--------------|--------x---------------|
------------------------|-------------------------|------------------------|
--1--------1------------|-------------------------|--0--------0------------|


  Q    E  E  E  E  E  E     E  E  E  E  H           Q    E  E  E  E  E  E   
----------------5-----3--|--L-----------4--------|----------------0-----7--|
-------0-----1--------0--|--L--0--------5--------|--0----1-----3-----------|
--2----------2-----x--0--|--L--0--x-----4--------|--2----0-----------x-----|
--3----------------x-----|--------x--------------|--2----------2-----x-----|
-------------------------|-----------------------|--0-------0--------------|
--1-------1--------------|--3--------4--L--------|-------------------------|


  E  E  E  E  Q    Q       Q    Q    E  Q    E     E  E  E  E  Q    Q     
--L----------------5----|--0----1----3--5-------|------------------------|
-----5--------5---------|--3---------3-------1--|--L--1-------------1----|
-----4--x-----4---------|--3---------3----------|-----2--x-----2----2----|
--------x---------------|-----------------------|-----3--x-----3---------|
------------------------|------------3----------|------------------------|
--4--------4--L---------|--3--------------------|--1--------1------------|


  Q    E  E  E  E  E  E     E  E  E  E  Q    E  E     Q    E  E  E  E  E  E   
----------------5-----3--|--L----------------0--3--|--5----------L-----8--6--|
-------0-----1-----x--0--|--L--3--------1----0-----|--6----6-----x--8--------|
--2----2-----2-----x-----|-----0--x-----0----------|-------5-----x-----------|
--0-------0--------------|--------x----------------|-------------------------|
-------------------------|-------------------------|-------------------------|
-------------------------|--0--------0-------------|--6-------6--------------|


                            More romantic                         
                ^                                          ^      
                            |--------3-------|                    
   E  E  E   E  H           E             E  E  E  E  Q    E  E   
----------------7--------|-------------------8--L----------7--5--|
--10--------10--9--------|--5h------------6----------------3-----|
---------7------7--------|--5----------------------5--4----4-----|
------7------------------|--7-------------------7-----3----------|
-------------------------|--5------------------------------------|
---7------------0--------|----------------------------3----------|


        |--3--|               |--3--|                    
  E  E  E  E  E  Q    Q       E  E  E  E  E  Q    E  E   
--7-----0-------------0----|-----0--1--L----------4--5--|
-----------0--3--0----0----|--3--------0----------3--5--|
--------0--------5---------|--2-----------2--1----------|
-----0---------------------|----------------------------|
--3------------------------|--2-------------------------|
---------------------------|-----------------0----------|


                             |--3--|                     
  E  E  E  E  E  E  E  E     E  E  E  E  E  E  E  E  E   
--7-----0-----------------|--------0--L--------------2--|
--0-----0--------------0--|--1--3-----1--------4--5-----|
--5--------5--------0-----|--2--------2-----------2-----|
-----7-----------0--------|--------------0-----4-----4--|
--0-----------------------|-----------------2-----------|
--------------3-----------|--2--------------------------|


                            |--3--|                         
  E  E  Q    E  E  Q        E  E  E   E   E  E   E  E   E   
--2-----3----5-----7----|--10--8---------------------------|
--0-----0----3-----5----|---8-----------------------8--10--|
-----0----------4--7----|---9-----9---L------9--11--7------|
-------------0----------|------------12--10----------------|
------------------------|----------------------------------|
--0---------------------|---8----------------8------7------|


   |--3--|                                                 
   E  E  E  E  E  E  E  E  E     E  E   Q     E   E  Q     
--10--8--0--L--------2--3--5--|--7-----------10------8----|
---8--8--0--------------------|--0-----10-----------------|
---9--------7--5--------------|-----0----------------9----|
------------------2-----------|------------------10-------|
---0--------------0-----------|--8------------8-----------|
------------------------3-----|---------------------------|


                           A Tempo                                             
  E  E   E  E  H           Q       E  E  E  E  E  E     E  E  E  E  Q    Q     
--7---------------------|----------------------0--7--|--L----------------5----|
--------10-----9--------|--0-------1--------3--------|-----5--------5---------|
-----7------7--9--------|--2-------0-----x-----------|-----4--x-----4---------|
------------------------|--2-------------x-----------|--------x---------------|
------------------------|--0----------0--------------|------------------------|
--0---------------------|----------------------------|--4--------4--L---------|


  Q    Q    E  Q    E     E  E  E  E  Q    Q       Q    E  E  E  E  E  E   
--0----1----3--5-------|------------------------|----------------5-----3--|
--3---------3-------1--|--L--1-------------1----|-------0-----1-----x--0--|
--3---------3----------|-----2--x-----2----2----|--2----2-----2-----x-----|
-----------------------|-----3--x-----3---------|--0-------0--------------|
------------3----------|------------------------|-------------------------|
--3--------------------|--1--------1------------|-------------------------|


                                                                    ^         
  E  E  E  E  Q    E  E     Q    E  E  E  E  E  E      E  E  E   E  H         
--L----------------0--3--|--5----------L-----8--6--|----------------7--------|
--L--3--------1----0-----|--6----6-----x--8--------|--10--------10--9--------|
-----0--x-----0----------|-------5-----x-----------|---------7------7--------|
--------x----------------|-------------------------|------7------------------|
-------------------------|-------------------------|-------------------------|
--0--------0-------------|--6-------6--------------|---7------------0--------|


                            |----3----|    |----3----|     
  Q    E  E  E  E  E  E     Q    Q    Q    Q    Q    Q     
--5----------------7--8--|--7----4------------------------|
--5----------------------|--5---------5-------------------|
--5----5-----x--5--------|--4--------------4----5----7----|
--9----9-----x--9--------|-----------------4--------------|
--0-------0--------------|--------------------------------|
-------------------------|--4-----------------------------|


  Q.     E  E  E  Q       Q.     E  E  E  Q       Q.     E  E  E  E  E   
--0---------------0----|-----------------------|---------------------3--|
--1------1--------1----|--3---------------0----|--1------1-----1--L-----|
---------0--x--0-------|--2------2-----2-------|---------2--x--2--L-----|
------------x----------|--4------4--x----------|--0---------x-----0-----|
-----------------------|------------x----------|------------------------|
--3------3-------------|--2--------------------|------------------------|


  Q    E  E  E  E  Q       Q    E  E  E  Q.        Q    H.            
------------------------|--0--------------------|-------3------------|
--1----------x--1--3----|--0----0--------0------|--0-----------------|
-------2-----x----------|--2----2-----x--2------|--1-----------------|
--0-------0--------0----|-------------x---------|--------------------|
------------------------|-----------------------|--------------------|
------------------------|--0-------0------------|--0-----------------|


  S S S S S S E  H           W                  
------------0-7--L--------|--L----------------||
--------0-1---5--L--------|--L----------------||
--2---2-------5--L--------|--L----------------||
----2---------------------|-------------------||
--0-----------------------|-------------------||
--------------------------|-------------------||




Duration Legend
---------------
W - whole
H - half
Q - quarter
E - 8th
S - 16th
T - 32nd
X - 64th
. - note dotted
|-n-|  - n-tuplets


Tablature Legend
----------------
L - tied note
x - dead note
g - grace note
(n) - ghost note
> - accentuded note
NH - natural harmonic
AH - artificial harmonic
TH - tapped harmonic
SH - semi harmonic
PH - pitch harmonic
h - hammer on
p - pull off
b - bend
br - bendRelease
pb - preBend
pbr - preBendRelease
brb - bendReleaseBend
\n/ - tremolo bar dip
\n - tremolo bar dive
-/n - tremolo bar Release up
/n\ - tremolo bar inverted dip
/n - tremolo bar return
-\n - tremolo bar Release down
S - shift slide
s - legato slide
/ -  slide into from below or out of upwards
\ -  slide into from above or out of downwards
~ - vibrato
W - wide vibrato
tr - trill
TP - tremolo picking
T - tapping
S - slap
P - pop
< - fade in
^ - brush up
v - brush down
Login or Register to remove this ad.

1 comment on Voice of No Return

Some really good stuff here, I love it

5

I especially like the section that you wrote as "more romantic" I usually play this song very fluidly as this sounds best to me. Do you write/arrange stuff for a living?? very good stuff, I've played a lot of your tabs before but I'm not used to doing so many of the artificial harmonics as you do in some other songs. Nice work.