Vague Hope (Cold Rain) (NieR: Automata) Guitar Tab

Submitted: Mar 13, 2019 by GomiNoUmi

5
Average: 5 (2 votes)
Download | Listen
Game: NieR: Automata
Composer(s): Keiichi Okabe, Keigo Hoashi, Kuniyuki Takahashi
Style: Arrangement, Fingerstyle
Series: NieR

AutoScroll: Slow | Medium | Fast
Title: Vague Hope (Cold Rain)
Composer: Keiichi Okabe
Game: NieR Automata
Song: https://www.youtube.com/watch?v=f5TSpEDSzac
Arrangement by: GomiNoUmi
Made: 7.3.2018

Capo on 2nd fret
Rhythm 6/4



E|-5-------------3-----------------------------3-------------|---------------3-------------2-------10---------|
B|---------0--1---------3--------5-------0--1----------------|---------0--1---------1------3-----10-----------|
G|---------2-------------------------------------------------|-----2-----------------------2------------------|
D|-----2-----------------------------------------------------|-0---------------------------0------------------|
A|-0---------------------------------3-----------------------|------------------------------------------------|
E|-------------------------------1---------------------------|------------------------------------------------|


E|-----------------------------------------1-----|-0------1--------------------0-----------3---0-------|
B|-1------3------0------1------------------1-----|-3------3------1------3------1-----------1-------0---|
G|-2------2------0------0------2-----------2-----|-2---2-----2---0------0------0-------0---------------|
D|-----2-----2---0---0-----0---3-------3---------|-0-------------0---0-----0-------2-------------------|
A|-0-------------------------------3-------------|-----------------------------3-----------------------|
E|---------------3-------------1-----------------|---------------3-------------------------------------|


E|-----------------------------------------------------|-------------------------------------------------------|
B|-3------5------0------3------1-----------0-----------|--------0--1---3------1--------0-----------------------|
G|-2------2------1------1------2-------2---0-------0---|-2-------------2------2--------1-------2---1-----------|
D|-4---4-----4---2---------2-------2-----------0-------|-3-------------0---0-----0-----2-----------------------|
A|-2-----------------2---------0-----------------------|-3---3-----------------------------2-------------------|
E|---------------0-------------------------3-----------|-1-----------------------------0-----------------------|


E|-------------------------------------------3-----|-0------1--------------------0-----------0-----------|
B|-1------3------0------1--------------0--1--1-----|-3------3------1------3------1-----------1-----------|
G|-2------2------0------0------2-------------------|-2---2-----2---0------0------0-------0---------------|
D|-----2-----2---0---0-----0---3-------------------|-0-------------0---0-----0-------2-------------------|
A|-0-------------------------------3---------------|-----------------------------3-----------------------|
E|---------------3-------------1-------------------|---------------3-------------------------------------|


E|-----------------------------------------0-----------|-------------------------------------------------------|
B|-3------5------0------3------1-------3---0-------0---|-1-------------1------3--------0-----------0-----------|
G|-2------2------1------1------2-------------------0---|-2---------2---2------2--------1---------------2---1---|
D|-4---4-----4---2---------2-------2-----------0-------|-3-------------0---0-----0-----2-------2---------------|
A|-2-----------------2---------0-----------------------|-3---3-----------------------------2-------------------|
E|---------------0-------------------------3-----------|-1-----------------------------0-----------------------|


E|---------------3-------------3-------------10----------|-0--------------------3------0-----------5-------0--2--|
B|---------0--1----------0--1----------------------------|-1------1------0------0------1-----------1-------------|
G|-2-----------------------------------------------------|-0------0------0------0------2-------2---2-------------|
D|-----2-------------------------------9--10-------------|-2---2-----2---0---0-----0---2---2---------------------|
A|-0-----------------------------------------------------|-3---------------------------0-------------------------|
E|-------------------------------------------------------|---------------3---------------------------------------|


E|-3------5--3---2---0-------------0-------0---------------|-0---------------------------3---2---------0-------------|
B|-1-------------3-------3---------0-------0------0--0--0--|--------1------1---0-----3---0------3------1-------0--1--|
G|-0-------------2-----------1--2--2-------2------1--1--1--|-2------2------0---0-----0-----------------2-------2-----|
D|-2---2---------0-----------2-----2---2---2---2--2--2--2--|-3---3-----3---0------0------2-----------------2---------|
A|-3-------------------------2---------2-------2-----------|-----------------------------2---------2---0-------------|
E|---------------------------0-----------------------------|-1-------------3-------------0---------0-----------------|


E|-----------------5------------0--------------------|-----------0-----------------------------------0-----3--------0--------|
B|--------1--------1-----3-----------------------0---|-1---3-----3-----3--------0--------1-----3-----0-----0--------0--------|
G|-2------2--------2-----2---------------2-----------|-2---------------0--------0--------2-----2-----------0-----------------|
D|-0-------------------------3-----3-----3-----------|-0------0--------2-----------------3-----------------0-----0-----0-----|
A|---------------------------------------------------|-----------------------------------------------------2-----------------|
E|-2---2-----2-----------1---------------1-----------|-----------------0-----0-----0-----1--------1--------3-----------------|


E|-5-------------3-------------3-------------3--5--3-------|---------------3-------------3-------------3--5--3-----10----|
B|-1-------0--1----------0--1----------0--1----------------|---------0--1----------0--1----------0--1--------------------|
G|---------2-----------------------------------------------|-----2-------------------------------------------------------|
D|-----2---------------------------------------------------|-0-------------------------------0---------------------------|
A|-0-------------------------------3-----------------------|-------------------------------------------------------------|
E|-----------------------------1---------------------------|-----------------------------3-------------------------------|


E|---------------3-------------3-------------3--5--3-------|---------------3-------------5-------------10---------|
B|---------0--1----------0--1----------0--1----------------|---------0--1----------1--3--------------10-----------|
G|---------2-----------------------------------------------|-----2-------------------------------0----------------|
D|-----2---------------------------------------------------|-0-------------------------------0--------------------|
A|-0-------------------------------3-----------------------|------------------------------------------------------|
E|-----------------------------1---------------------------|-----------------------------3------------------------|

Login or Register to remove this ad.