Peaceful Sleep (Instrumental) (NieR: Automata) Guitar Tab

Submitted: Mar 18, 2017 by quinndangle2 (Last updated: May 06, 2017)

5
Average: 5 (4 votes)
Download | Listen
Game: NieR: Automata
Composer(s): Keiichi Okabe, Keigo Hoashi, Kuniyuki Takahashi
Style: Arrangement, Fingerstyle
Series: NieR

AutoScroll: Slow | Medium | Fast
Peacful Sleep (Instrumental)
From NieR: Automata
Composed by Keiichi Okabe
Arranged by Brent Quinn

Open D tuning (DADF#AD)
Tempo ~ 65
4/4 Time

    E   E   E   E   H       E   E   E   E   H       E   E   E   E   H       W
 D|-------------0---L-----|-------------2---L-----|-------------2---L-----|-0------|
 A|-----2-----------------|-----2-----------------|-----3-----------------|-0------|
F#|---------1-------------|---------1-------------|---------1-------------|-3------|
 D|-2---------------------|-----------------------|-----------------------|-0------|
 A|-----------------------|-3---------------------|-0---------------------|-0------|
 D|-----------------------|-----------------------|-----------------------|-0------|


     E   E   E   E   H       E   E   E   E   H       E   E   E   E   H       E   E   E   E   H
 D||-----------------------|-----------------------|-----------------------|-----------------------|
 A||-------------2---L-----|-------------2---L-----|-------------2---L-----|-------------2---L-----|
F#||*----1-----------------|-----0-----------------|-----1-----------------|-----0-----------------|
 D||*--------2-------------|---------0-------------|---------2-------------|---------0-------------|
 A||-3---------------------|-2---------------------|-0---------------------|-----------------------|
 D||-----------------------|-----------------------|-----------------------|-5---------------------|

    E   E   E   E   H       E   E   E   E   H       E   E   E   E   H       E   E   E   E   H     X1
 D|-----------------------|-----------------------|-------------0---L-----|-------------0---L-----||
 A|-------------3---L-----|-------------2---L-----|-----------------------|---------0-------------||
F#|-----3-----------------|-----1-----------------|-----1-----------------|-----1----------------*||
 D|---------2-------------|---------2-------------|---------1-------------|----------------------*||
 A|-----------------------|-----------------------|-----------------------|-----------------------||
 D|-3---------------------|-2---------------------|-1---------------------|-0---------------------||

    E   E   E   E   H       E   E   E   E   H       E   E   E   E   H       E   E   E   E   E   E   E   E
 D|-------------0---L-----|-----------------------|-------------0---L-----|---------------------------------|
 A|-----2-----------------|-------------3---L-----|-----2-----------------|-------------1-------------------|
F#|---------0-------------|-----1-----------------|---------1-------------|-----1-----------------------3---|
 D|-----------------------|---------2-------------|-----------------------|---------1-----------3-----------|
 A|-----------------------|-0---------------------|-2---------------------|-3-----------------------3-------|
 D|-5---------------------|-----------------------|-----------------------|-----------------3---------------|


    E   E   E   E   H       E   E   E   E   H       E   E   E   E   H       E   E   E   E   E   E   E   E
 D|-------------0---L-----|-----------------------|-------------0---L-----|-------------2---------------4---|
 A|-----2-----------------|-------------3---L-----|-----2-----------------|-----2---------------3-----------|
F#|---------0-------------|-----1-----------------|---------1-------------|---------1---------------3-------|
 D|-----------------------|---------2-------------|-----------------------|-----------------1---------------|
 A|-----------------------|-0---------------------|-2---------------------|-3-------------------------------|
 D|-5---------------------|-----------------------|-----------------------|---------------------------------|


    E   E   E   E   H       E   E   E   E   H       E   E   E   E   H       E   E   E   E   H
 D|-------------0---L-----|-------------2---L-----|-------------2---L-----|-------------0---L-----|
 A|-----2-----------------|-----2-----------------|-----3-----------------|-----0-----------------|
F#|---------1-------------|---------1-------------|---------1-------------|---------0-------------|
 D|-2---------------------|-----------------------|-----------------------|-0---------------------|
 A|-----------------------|-3---------------------|-0---------------------|-----------------------|
 D|-----------------------|-----------------------|-----------------------|-----------------------|
Login or Register to remove this ad.

4 comments on Peaceful Sleep (Instrumental)

This has an interesting sound to it...

5

Has a very different sound and feel to this one but I like it quite a bit, how did you figure out to put it in this tuning though? Just tried different ones out or what? Also, did you want to try to make a version with the other instruments/voices in it?

Thanks! Tuning was more of a

Thanks! Tuning was more of a gut feel thing - i used to play a fair few of Masaaki Kishibe's tabs which are often in Open D or Dsus4 tunings, i first started trying to do this tab with the instrumental + vocal voicings, so open D was the only way i could think to have both voices on there for solo guitar and have it ring nicely too :) i've already got a little bit done on the vocal version which has the lead voicings as well - but i don't think i'll be done on that for a while as i'm working on some other tracks for now

Very nice tablature!

5

Thank you for this tablature! I would've never figured out this tuning if I tried to figure out how to play this song myself.

I have a new account so I can't write PM's yet, but I've recently completed my NieR: Automata cover EP and in my peaceful sleep cover I played the accoustic guitar part the way I learned from looking at your tabulature. I intend to distribute this EP on streaming services like spotify and am just checking that/if you're cool with that since I learnt how to play this part from your fan-tab after all.

Here's my cover so you can hear for yourself:
https://www.youtube.com/watch?v=2icQ-easaN8

Thank you for teaching me how to play it properly! :)

Glad you like it! Cool with

Glad you like it! Cool with me man, your track sounds great and i wish you all the best :)