Ads

Kokoro no Kakera (Duet) (Ni no Kuni) Guitar Tab

Submitted: Jun 27, 2015 by TheDoomOfAllFires

5
Average: 5 (1 vote)
Download | Listen
Game: Ni no Kuni
Composer(s): Joe Hisaishi
Style: 2 or more instruments, Arrangement, Fingerstyle

This song is also called Fragments of Hearts

AutoScroll: Slow | Medium | Fast
Title: Kokoro no Kakera
SubTitle: ~Fragments of Hearts~
Artist: Joe Hisaishi
Album: Ni no Kuni - Wrath of the White Witch
Music: Joe Hisaishi
Copyright: Joe Hisaishi
Level-5
Studio Ghibli
Tabber: TheDoomOfAllFires
Tempo : 95
Capo : 2


Guitar #1


E |-----------------------2----|--------------7-------------|
B |-----3--0h-3--------2-------|-----0-----7-----7-----7----|
G |----------------------------|--------7-----------7-------|
D |-----------------4----------|----------------------------|
A |--2-----------0-------------|----------------------------|
E |----------------------------|--3-------------------------|


----------------------------|-----------0----------------|
-----------2-----------2----|--------------4~------------|
--------2-----------2-------|--------4-------------------|
-----2-----------2----------|-----4----------------------|
--0-------------------------|--2-------------------------|
--------------2-------------|----------------------------|


-----------------------2----|--------------7-------------|--0-------|
--3-----------2-----2-------|--0--------0-----7-----0----|--2--2----|
--4-----------2--2----------|--------0-----------7-------|--2--2----|
--4-------------------------|-----0----------------------|--2-------|
--2-----------0-------------|----------------------------|--0-------|
----------------------------|--3-------------------------|-----2----|


----------------------------|----------------|--------------------2-------|
--3-----------2--------2----|--3-----2-------|--0--------0--3h-0-----3----|
--0-----------------2-------|--4-----2-------|--------0-------------------|
--------4--------4----------|-----4-----4----|-----0----------------------|
----------------------------|--2-----0-------|----------------------------|
--0-----------2-------------|----------------|--3-------------------------|


--------------0-------------|----------------|--------------0-------------|
-----------3----------------|--0-------------|-----------3-----3-----3----|
--------2-------------------|--4--2--4-------|--------2-----------2-------|
-----2----------------------|--4--4--4-------|-----4----------------------|
--0-------------------------|--2-------------|--5-------------------------|
----------------------------|----------------|----------------------------|


-----------0--5h-0----------|-----------------10-9--7----|
-----------2--------2-------|-----------3s-7-------------|
--------2--------------2----|--------2-------------------|
-----2----------------------|-----4----------------------|
--0-------------------------|--5-------------------------|
----------------------------|----------------------------|


--5-----------0-------------|----------------------------|
-----------2-----2----------|--3--2----------------------|
--------2-----------2-------|--------4-------------------|
-----2-----------------2----|-----------4----------------|
--0-------------------------|--2-----------2-------------|
----------------------------|----------------------------|


--0-------------------------|-------|--------------------2-------|
-----3--2-------------------|-------|-----------0--3h-0-----0----|
-----------2----------------|-------|--------2-------------------|
--------------2-------------|-------|-----0----------------------|
--0-------------------------|-------|----------------------------|
----------------------------|-------|--3-------------------------|


--------------0-------------|--------------3-------------|
-----------3-----3----------|--------------0-------------|
--------2-----------2-------|-----------4-----4h-0-------|
-----4-----------------4----|--------2--------------2----|
--5-------------------------|-----2----------------------|
----------------------------|--0-------------------------|


----------------------------|-----------------3--5h-3----|
----------------------------|-----------0--3-------------|
-----------4--3-------------|--------2-------------------|
--------4-------------------|-----0----------------------|
-----4----------------------|----------------------------|
--2-------------------------|--3-------------------------|


--------------5h-2----------|----------------------------|
-----------3--------3-------|--------------0-------------|
--------2--------------2----|-----------0----------------|
-----4----------------------|--------2-------------------|
--5-------------------------|-----2----------------------|
----------------------------|--0-------------------------|


----------------------------|--------------0-------------|
----------------------------|-----------1-----1----------|
-----------4--3-------------|--------0-----------0-------|
--------4-------------------|-----2-----------------2----|
-----4----------------------|--3-------------------------|
--2-----------2-------------|----------------------------|


--------------2-------------|-----------------------0----|
-----------2-----2-----2----|-----------0----------------|
--------4-----------4-------|--------0-----------2-------|
-----4----------------------|-----0-----------2----------|
--2-------------------------|--------------0-------------|
----------------------------|--3-------------------------|


-----------0----------------|-------|--------------2-----0-------|
--------------4~------------|-------|--------3--------------3----|
--------4-------------------|-------|-----4-----4-----4----------|
-----4----------------------|-------|--5-------------------------|
--2-------------------------|--2----|----------------------------|
----------------------------|-------|----------------------------|


--------------0-------------|--------------0-------------|
-----------3-----3-----3----|-----------1-----1----------|
--------2-----------2-------|--------0-----------0-------|
-----4----------------------|-----2-----------------2----|
--5-------------------------|--3-------------------------|
----------------------------|----------------------------|


-----------0----------------|----------------------------|
----------------------------|--3-----------2-----2-------|
--------4-----3-------------|--4-----------2--2-----2----|
-----4----------------------|--4-----------------2-------|
----------------------------|--2-----------0-------------|
--2-------------------------|----------------------------|


--------------2-------------|--0-------|-----------2----|----------------|
--0--------0-----0-----0----|--2--2----|--3-----2-------|--3-----2-------|
--------0-----------0-------|--2--2----|--0-----2-------|--4-----2-------|
-----0----------------------|--2-------|-----4----------|-----4-----4----|
----------------------------|--0-------|----------------|--2-----0-------|
--3-------------------------|-----2----|--0-----2-------|----------------|


--------------------2-------|--------------0-------------|----------------|
--3--------3-----0-----3----|-----------3--2-------------|--0--2--3-------|
--------0-----0-------------|--------2-------------------|--4--2--4-------|
-----0----------------------|-----2----------------------|--4--4--4-------|
----------------------------|--0-------------------------|--2-------------|
--3-------------------------|----------------------------|----------------|


----------------------------|--0--------0--0-------------|
--3--------3--3-----3-------|--2--------2--2-------------|
--2--------2--2-----2-------|--2--------2--2-------------|
--4--------4--4-----4-------|--2-----------2-------------|
--5-----------5-----5-------|--0-----------0-------------|
----------------------------|----------------------------|


----------------------------|--0--------0--0-------------|
--3--------3--3-----3-------|--2--------2--2-------------|
--2--------2--2-----2-------|--2--------2--2-------------|
--4--------4--4-----4-------|--2-----------2-------------|
--5-----------5-----5-------|--0-----------0-------------|
----------------------------|----------------------------|


----------------------------|----------------------------|-------|
--3--2----------------------|--2--0----------------------|-------|
--------4-------------------|--------2-------------------|-------|
-----------4----------------|-----------2----------------|-------|
--2-----------2-------------|--0-----------4-------------|--0----|
----------------------------|----------------------------|-------|


--------------------2-------|--------------0-------------|
-----------0--3h-0-----0----|-----------3-----3----------|
--------2-------------------|--------2-----------2-------|
-----0----------------------|-----4-----------------4----|
----------------------------|--5-------------------------|
--3-------------------------|----------------------------|


--------------3-------------|----------------------------|
--------------0-------------|----------------------------|
-----------4-----4h-0-------|-----------4--3-------------|
--------2--------------2----|--------4-------------------|
-----2----------------------|-----4----------------------|
--0-------------------------|--2-------------------------|


-----------------3--5h-3----|--------------5h-2----------|
-----------0--3-------------|-----------3--------3-------|
--------2-------------------|--------2--------------2----|
-----0----------------------|-----4----------------------|
----------------------------|--5-------------------------|
--3-------------------------|----------------------------|


----------------------------|----------------------------|
--------------0-------------|----------------------------|
-----------0----------------|-----------4--3-------------|
--------2-------------------|--------4-------------------|
-----2----------------------|-----4----------------------|
--0-------------------------|--2-----------2-------------|


--------------0-------------|--------------2-------------|
-----------1-----1----------|-----------2-----2-----2----|
--------0-----------0-------|--------4-----------4-------|
-----2-----------------2----|-----4----------------------|
--3-------------------------|--2-------------------------|
----------------------------|----------------------------|


-----------------------0----|--0--0-----0-----0--0-------|
--0--------0----------------|--x--x-----x-----x--x-------|
--0--------2--------2-------|--4--4-----4--4--4--4-------|
--0--------2-----2----------|--4--4-----4--4--4--4-------|
-----------0--0-------------|--2-----------2-----2-------|
--3-------------------------|----------------------------|


----------------------------|-----------------------2----|
--4--4-----4----------------|--3-----------2-----2-------|
--4--4-----4----------------|--4-----------2--2----------|
--4--4-----4----------------|--4-------------------------|
--2--------2----------------|--2-----------0-------------|
----------------------------|----------------------------|


--------------7-------------|--0-------|----------------------------|
--0--------0-----7-----0----|--2--2----|--3-----------2--------2----|
--------0-----------7-------|--2--2----|--0-----------------2-------|
-----0----------------------|--2-------|--------4--------4----------|
----------------------------|--0-------|----------------------------|
--3-------------------------|-----2----|--0-----------2-------------|


----------------|--------------------2-------|--------------0-------------|
--3-----2-------|--0--------0--3h-0-----3----|-----------3----------------|
--4-----2-------|--------0-------------------|--------2-------------------|
-----4-----4----|-----0----------------------|-----2----------------------|
--2-----0-------|----------------------------|--0-------------------------|
----------------|--3-------------------------|----------------------------|


----------------|----------------|--------------------4-------|
--0-------------|--1--3--1-------|-----------4-----4-----4----|
--4--2--4-------|--0-----0-------|--------5-----5-------------|
--4--4--4-------|----------------|-----6----------------------|
--2-------------|--3-------------|----------------------------|
----------------|----------------|--4-------------------------|


--------------3-------------|--------------------3-------|
-----------4-----4----------|--------------1--------1----|
-----0--3-----------3--0----|-----------1-----1----------|
--1-------------------------|--------3-------------------|
----------------------------|-----3----------------------|
----------------------------|--1-------------------------|


----------------------------|--------------4-----4-------|
-----------1h-0-------------|-----------4-----4-----4----|
--------0-------------------|--------5-------------------|
-----0----------------------|-----6----------------------|
----------------------------|----------------------------|
--3-------------------------|--4-------------------------|


--3-----------1-------------|-----------------1----------|
-----------4-----4-----4----|--------------1-----1-------|
-----0--3-----------3-------|-----------1-----------1----|
--1-------------------------|--------3-------------------|
----------------------------|-----3----------------------|
----------------------------|--1-------------------------|


----------------------------|----------------------------|
--------1-----0-------------|-----------2-----2-----2g---|
----------------------------|--------1-----1-----1g------|
-----0-----0----------------|-----3----------------------|
----------------------------|--4-------------------------|
--3-------------------------|----------------------------|


--------------3-------------|-----------------------1----|
--------1--4-----4--1-------|--1--------3--------3-------|
-----0-----------------0----|--0--------3-----3----------|
----------------------------|-----------3--3-------------|
--3-------------------------|-----------1----------------|
----------------------------|--4-------------------------|


--1--1-----1--1--1--1--0----|--0----|----------------------------|
--1--1-----1--1--1--1-------|--1----|--------1--4--------1--4----|
--0--0-----0--0--0--0-------|--0----|--0--1--------0--1----------|
----------------------------|-------|----------------------------|
--3-----------3-----3-------|--3----|----------------------------|
----------------------------|-------|----------------------------|


----------------------------|----------------------------|--3----||
-----------3-----------3----|-----------1-----------1----|--1----||
-----0--3--------0--3-------|--------1-----------1-------|-------||
--3-----------3-------------|--1--3--------1--3----------|-------||
----------------------------|----------------------------|-------||
----------------------------|----------------------------|--3----||


-------------------------------------------------------------------


Guitar #2


E |-----2--2~------|--------2h-3--2-------------|
B |--0-------------|--0-----------------3-------|
G |----------------|----------------------------|
D |----------------|----------------------------|
A |----------------|----------------------------|
E |----------------|----------------------------|


--0-----------------------2h-0--------------------------------------------------
-----------------------------------------3-----------2--------------------------
-----------------------------------------------------------------------------2--
--------------------------------------------------------------------------------
--------------------------------------------------------------------------------
--------------------------------------------------------------------------------


-----------------------|-------|-----2--2~------|--------2h-3--2-------------|
-----------------------|--0----|--0-------------|--0-----------------3-------|
-----------------------|-------|----------------|----------------------------|
-----------------------|-------|----------------|----------------------------|
-----------------------|-------|----------------|----------------------------|
-----------------------|-------|----------------|----------------------------|


--0-----0-----------2-------|----------------------------|-----2--2~------|
-----------3--2-------------|--3h-2h-0-----2-------------|--0-------------|
----------------------------|----------------------------|----------------|
----------------------------|----------------------------|----------------|
----------------------------|----------------------------|----------------|
----------------------------|----------------------------|----------------|


--------2h-3--2-------------|--0-----0-----------0h-2----|----------------|
--0-----------------3-------|-----------3--2h-3----------|--0-----0-------|
----------------------------|----------------------------|-----2----------|
----------------------------|----------------------------|----------------|
----------------------------|----------------------------|----------------|
----------------------------|----------------------------|----------------|


-----------0h-2-------------|--0-------------|-----------0h-2-------------|
--3-----3-----------3-------|----------------|--3-----3-----------3-------|
----------------------------|-----2--2-------|----------------------------|
----------------------------|----------------|----------------------------|
----------------------------|----------------|----------------------------|
----------------------------|----------------|----------------------------|


--0-----5--------5--5h-2----|-----------------5--5h-2----|--0----|
----------------------------|--3L----------3-------------|-------|
----------------------------|----------------------------|-------|
----------------------------|----------------------------|-------|
----------------------------|----------------------------|-------|
----------------------------|----------------------------|-------|


-----------------2--2s-5----|--7L----------7--7h-5-------|
----------------------------|-----------------------8----|
----------------------------|----------------------------|
----------------------------|----------------------------|
----------------------------|----------------------------|
----------------------------|----------------------------|


--5L----------5-------------|--3--------3--3-----2h-0----|
--------------------3--3----|----------------------------|
----------------------------|----------------------------|
----------------------------|----------------------------|
----------------------------|----------------------------|
----------------------------|----------------------------|


--2L----------2--2--2s-5----|--7L----------7--9----------|
----------------------------|--------------------10-8----|
----------------------------|----------------------------|
----------------------------|----------------------------|
----------------------------|----------------------------|
----------------------------|----------------------------|


--5L----------5-----0h-2----|--3~-------3--3--5h-2--0----|
-----------------3----------|----------------------------|
----------------------------|----------------------------|
----------------------------|----------------------------|
----------------------------|----------------------------|
----------------------------|----------------------------|


--2L----------2--2--2--2g---|--2--0--0g----0--3-----2----|
----------------------------|-----------4----------------|
----------------------------|----------------------------|
----------------------------|----------------------------|
----------------------------|----------------------------|
----------------------------|----------------------------|


----------------------------------------------------|
--3L----------------------3--------------------7----|
--------------------------------------4h-6h-7-------|
----------------------------------------------------|
----------------------------------------------------|
----------------------------------------------------|


--7L----------7~-------9----|--7~---|-----------------2--2h-5----|
-----------------10-10------|-------|----------------------------|
----------------------------|-------|----------------------------|
----------------------------|-------|----------------------------|
----------------------------|-------|----------------------------|
----------------------------|-------|----------------------------|


--7L----------7--9-----0----|--0h-2L----------2----------|
--------------------10------|--------------------3--3----|
----------------------------|----------------------------|
----------------------------|----------------------------|
----------------------------|----------------------------|
----------------------------|----------------------------|


--0L----------0--2----------|----------|-----2--2~------|
--------------------3--0----|--0-------|--0-------------|
----------------------------|-----3----|----------------|
----------------------------|----------|----------------|
----------------------------|----------|----------------|
----------------------------|----------|----------------|


--------2h-3--2-------------|--0-----0-----------2-------|
--0-----------------3-------|-----------3--2-------------|
----------------------------|----------------------------|
----------------------------|----------------------------|
----------------------------|----------------------------|
----------------------------|----------------------------|


----------------------------|-----2--2~------|--------2h-3--2-------------|
--3h-2h-0-----2-------------|--0-------------|--0-----------------3-------|
----------------------------|----------------|----------------------------|
----------------------------|----------------|----------------------------|
----------------------------|----------------|----------------------------|
----------------------------|----------------|----------------------------|


--0-----0-----------0h-2----|----------------|-----------0h-2-------------|
-----------3--2h-3----------|--0-----0-------|--3-----3-----------3-------|
----------------------------|-----2----------|----------------------------|
----------------------------|----------------|----------------------------|
----------------------------|----------------|----------------------------|
----------------------------|----------------|----------------------------|


--0-------------------------|-----------0h-2-------------|
----------------------------|--3-----3-----------3-------|
--------2-----2--------2----|----------------------------|
----------------------------|----------------------------|
----------------------------|----------------------------|
----------------------------|----------------------------|


--0-----5--------5--5h-2----|-----------------5--5h-2----|--0----|
----------------------------|--3L----------3-------------|-------|
----------------------------|----------------------------|-------|
----------------------------|----------------------------|-------|
----------------------------|----------------------------|-------|
----------------------------|----------------------------|-------|


-----------------------5----|--7L----------7--7h-5-------|
--------------------7-------|-----------------------8----|
----------------------------|----------------------------|
----------------------------|----------------------------|
----------------------------|----------------------------|
----------------------------|----------------------------|


--5L----------5-------------|--3--------3--3-----2h-0----|
--------------------3--3----|----------------------------|
----------------------------|----------------------------|
----------------------------|----------------------------|
----------------------------|----------------------------|
----------------------------|----------------------------|


--2L----------2--2--2s-5----|--7-----------7--9----------|
----------------------------|--------------------10-8----|
----------------------------|----------------------------|
----------------------------|----------------------------|
----------------------------|----------------------------|
----------------------------|----------------------------|


--5L----------5-----0h-2----|--3~----3--3--3s-5--2--0----|
-----------------3----------|----------------------------|
----------------------------|----------------------------|
----------------------------|----------------------------|
----------------------------|----------------------------|
----------------------------|----------------------------|


--2L----------2--2-----2----|--2--0--0g----0h-3-----2----|
----------------------------|-----------4----------------|
----------------------------|----------------------------|
----------------------------|----------------------------|
----------------------------|----------------------------|
----------------------------|----------------------------|


----------------------------------------------------|
--3L----------------------3--------------------7----|
--------------------------------------4h-6h-7-------|
----------------------------------------------------|
----------------------------------------------------|
----------------------------------------------------|


--7L----------7~-------9----|--7~---|----|-----2--2~------|
-----------------10-10------|-------|----|--0-------------|
----------------------------|-------|----|----------------|
----------------------------|-------|----|----------------|
----------------------------|-------|----|----------------|
----------------------------|-------|----|----------------|


--------2h-3--2-------------|--0-----0-----------2-------|
--0-----------------3-------|-----------3--2-------------|
----------------------------|----------------------------|
----------------------------|----------------------------|
----------------------------|----------------------------|
----------------------------|----------------------------|


----------------------------|-----2--2~------|--------2h-3--2-------------|
--3h-2h-0-----2-------------|--0-------------|--0-----------------3-------|
----------------------------|----------------|----------------------------|
----------------------------|----------------|----------------------------|
----------------------------|----------------|----------------------------|
----------------------------|----------------|----------------------------|


--0-----0-----------0h-2----|
-----------3--2h-3----------|
----------------------------|
----------------------------|
----------------------------|
----------------------------|


--------------------------------------------2--7s---|
--0-----------------------0-----------0h-3----------|
--------------2-------------------------------------|
----------------------------------------------------|
----------------------------------------------------|
----------------------------------------------------|


--8-----6-----8--------6----|--8L----------8--8h-6-------|
-----------------8--8-------|-----------------------9----|
----------------------------|----------------------------|
----------------------------|----------------------------|
----------------------------|----------------------------|
----------------------------|----------------------------|


--6-------------------------|--4--------4--4-----3-------|
--------------------4--4----|-----------------------6----|
----------------------------|----------------------------|
----------------------------|----------------------------|
----------------------------|----------------------------|
----------------------------|----------------------------|


--3L----------3--3--3s-6----|--8L----------8--10-6-------|
----------------------------|-----------------------9----|
----------------------------|----------------------------|
----------------------------|----------------------------|
----------------------------|----------------------------|
----------------------------|----------------------------|


--6L----------6--------3----|--4--------4--4--6--3-------|
-----------------4--6-------|-----------------------6----|
----------------------------|----------------------------|
----------------------------|----------------------------|
----------------------------|----------------------------|
----------------------------|----------------------------|


--3L----------3--3--3--3----|--3h-1--1--0h-1--4-----3----|
----------------------------|----------------------------|
----------------------------|----------------------------|
----------------------------|----------------------------|
----------------------------|----------------------------|
----------------------------|----------------------------|


----------------------------------------------------|
--4L----------------------4--------------------8----|
--------------------------------------5h-7h-8-------|
----------------------------------------------------|
----------------------------------------------------|
----------------------------------------------------|


--8L----------8--6--6--10---|--8~---|----|-----3--3-------|-----3--3-------|
----------------------------|-------|----|--1-------------|--1-------------|
----------------------------|-------|----|----------------|----------------|
----------------------------|-------|----|----------------|----------------|
----------------------------|-------|----|----------------|----------------|
----------------------------|-------|----|----------------|----------------|


-----3--3-------|----||
--1-------------|----||
----------------|----||
----------------|----||
----------------|----||
----------------|----||


Legend
L - tied note
x - dead note
h - hammer on/pull off
b - bend
s - slide
~ - vibrato
g - ghost note
> - accentuated note
t - trill
M - palm mute
. - staccato
P - popping (bass)
S - slapping (bass)
+ - tapping
W - wide vibrato
< - fade in
w - whammy bar
= - tremolo picking
v - brush up
^ - brush down
V - pick stroke up
n - pick stroke down
Login or Register to remove this ad.