Fragments of Hearts (Ni no Kuni) Guitar Tab

Submitted: Aug 21, 2013 by Calebelijah

0
Download | Listen
Game: Ni no Kuni
Composer(s): Joe Hisaishi
Style: 2 or more instruments, Transcription

AutoScroll: Slow | Medium | Fast
Title: Fragments of Hearts
Tempo = 92
Steel Guitar
Gtr 1

                                                                                
E |--------------------------4-----------------------2--4L----------------------
B |--2--------------------------------------------------------------------------
G |-----------------------------------------------------------------------------
D |-----------------------------------------------------------------------------
A |-----------------------------------------------------------------------------
E |-----------------------------------------------------------------------------

                                                        
--------------------------|--4-----4--5--4-----0-------|
--------------------------|----------------------------|
--------------------------|----------------------------|
--------------------------|----------------------------|
--------------------------|----------------------------|
--------------------------|----------------------------|

                                                                                
--2-----------------------4--2-----------0--------------------------------------
-----------------------------------------------------4-----------------------0--
--------------------------------------------------------------------------------
--------------------------------------------------------------------------------
--------------------------------------------------------------------------------
--------------------------------------------------------------------------------

                                                             
-----------------------|-------|----------------------------|
-----------------------|--2----|--5-----------9--------9----|
-----------------------|-------|----------------------------|
-----------------------|-------|----------------------------|
-----------------------|-------|----------------------------|
-----------------------|-------|----------------------------|

                                                                              
--------------9-------------|----------|----------|----------|--9----|--7----|
--9-------------------------|--7--9----|--5--7----|--9--9----|--9----|--7----|
----------------------------|----------|----------|----------|-------|-------|
----------------------------|----------|----------|----------|-------|-------|
----------------------------|----------|----------|----------|-------|-------|
----------------------------|----------|----------|----------|-------|-------|

                                                                           
--9--7--9-------|--------------------7-------|--------------------7-------|
--9--7--9-------|--9--------------------9----|--7--------------7-----7----|
----------------|----------------------------|----------------------------|
----------------|----------------------------|----------------------------|
----------------|----------------------------|----------------------------|
----------------|----------------------------|----------------------------|

                                                          
-----------------12-11-9----|-----------------------11---|
--9-------------------------|--12----------------12------|
----------------------------|-----------------11---------|
----------------------------|----------------------------|
----------------------------|----------------------------|
----------------------------|----------------------------|

                                                                  
--12-11----12-11------------|--11-9-----11-9-------------|-------|
-----------------12-9-------|-----------------12---------|-------|
-----------------------9----|--------11----------11------|--11---|
----------------------------|----------------------------|-------|
----------------------------|----------------------------|-------|
----------------------------|----------------------------|-------|

                                                                            
--9--------9----|----------------|-------|----------------|--9--------9----|
----------------|--12-------12---|--10---|--9-------------|----------------|
----------------|----------------|-------|----------------|----------------|
----------------|----------------|-------|-----9--10-11---|----------------|
----------------|----------------|-------|----------------|----------------|
----------------|----------------|-------|----------------|----------------|

                                                     
----------------------------------------------------|
--12-------------------------------------------9----|
--------------------------------------8--9--11------|
----------------------------------------------------|
----------------------------------------------------|
----------------------------------------------------|

                                                                           
--12----------17----16-14---|--16-------14-11------------|----------------|
-----------14---------------|----------------------------|----------------|
----------------------------|----------------------------|--11-------11---|
----------------------------|----------------------------|--------11------|
----------------------------|----------------------------|-----12---------|
----------------------------|----------------------------|----------------|

                                                                           
----------------|----------------------------|--------------16-------14---|
----------------|----------------------------|--------14------------------|
----------------|--13----------13------------|--13------------------------|
--14-13-11------|----------------------------|----------------------------|
----------------|----------------------------|----------------------------|
----------------|----------------------------|----------------------------|

                                                          
--16------------------------|--9L----------9--11---------|
--------------------9--12---|--------------------12------|
----------------------------|-----------------------11---|
----------------------------|----------------------------|
----------------------------|----------------------------|
----------------------------|----------------------------|

                                                                     
----------------------------|-----------------4----------|--4--4----|
----------------------------|--------------------5-------|----------|
--11-13L------13----9-------|--11L---------11-------6----|----------|
-----------------------9----|----------------------------|----------|
----------------------------|----------------------------|----------|
----------------------------|----------------------------|----------|

                                                          
-----4-----4-----4-----4----|-----4-----4-----4-----4----|
--5-----7-----4-----7-------|--------7-----------7-------|
----------------------------|--6-----------6-------------|
----------------------------|----------------------------|
----------------------------|----------------------------|
----------------------------|----------------------------|

                                                          
-----4-----4-----4-----4----|-----4-----4-----4-----4----|
--------7-----7-----7-------|--------7-----4-----7-------|
--4-------------------------|----------------------------|
----------------------------|--7-------------------------|
----------------------------|----------------------------|
----------------------------|----------------------------|

                                                          
-----4-----4-----4-----4----|-----4-----4-----4-----4----|
--5-----7-----4-----7-------|--------7-----------7-------|
----------------------------|--6-----------6-------------|
----------------------------|----------------------------|
----------------------------|----------------------------|
----------------------------|----------------------------|

                                                          
-----4-----4-----4-----4----|--4-----------4-------------|
--------7-----7-----7-------|--------7-----------5--7----|
--4-------------------------|-----------------4----------|
----------------------------|----------------------------|
----------------------------|----------------------------|
----------------------------|----------------------------|

                                                     
--4-----4--4--4-----4--4--4-----7-----4-------------|
--------------------------------------------5-------|
----------------------------------------------------|
----------------------------------------------------|
----------------------------------------------------|
----------------------------------------------------|

                                                     
--------------------------------7-------------------|
--7-----7--7--7-----7--7--7-----------7-----4-------|
----------------------------------------------------|
----------------------------------------------------|
----------------------------------------------------|
----------------------------------------------------|

                                                     
--------------------------------7-----4-------------|
--5-----5--5--5-----5--5--5-----------------5-------|
----------------------------------------------------|
----------------------------------------------------|
----------------------------------------------------|
----------------------------------------------------|

                                                     
----------------------------------------------------|
--7-----7--7--7-----7--7--7-------------------------|
----------------------------------------------------|
----------------------------------------------------|
----------------------------------------------------|
----------------------------------------------------|

                                                     
----------------------------------------------------|
--------------5-----------------------5-------------|
--------------6--------------------6-----6----------|
--------------6-----------------6-----------6-------|
--4-----------------------4-------------------------|
----------------------------------------------------|

                                                             
----------------------------------------------------|-------|
--------------4-----------------------4-------------|-------|
--------------4--------------------4-----4----------|-------|
--------------4-----------------4-----------4-------|-------|
--2-----------------------2-------------------------|--2----|
----------------------------------------------------|-------|

                                                          
-----------------4----------|-----------------7h-0-------|
--------------------5-------|--7L----------7-------------|
-----------------------6----|-----------------------4----|
--6L----------6-------------|----------------------------|
----------------------------|----------------------------|
----------------------------|----------------------------|

                                              
-----------------5--0-------|--4-------------|
--5L----------5-------------|----------------|
-----------------------2----|-----5L-5--6----|
----------------------------|----------------|
----------------------------|----------------|
----------------------------|----------------|

                                                     
--------------------------------------4-------------|
--5-----4-----7-----5--------------------5----------|
--------------------------------------------6-------|
--------------------------6-----4-------------------|
----------------------------------------------------|
----------------------------------------------------|

                                                     
----------------------------------------------------|
--5-----4-----7-----5-----------------7h-5----------|
--------------------------------------------4-------|
--------------------------6-----4--------------6----|
----------------------------------------------------|
----------------------------------------------------|

                                                     
----------------------------------------------------|
-----------------------------------4--5-------------|
-----------4--6L----------6-----6-------------------|
--4-----7-------------------------------------------|
----------------------------------------------------|
----------------------------------------------------|

                                                     
----------------------------------------------------|
--4-----4h-5--7h-5--4-----------4-------------------|
-----------------------6--5h-6----------------------|
-----------------------------------7--6--4----------|
--------------------------------------------7--6----|
----------------------------------------------------|

                                                          
----------------------------|----------------------------|
----------------------------|----------------------------|
----------------------------|--------------------1-------|
--6--4--4--3--4-------------|--2--------4L-4-------------|
----------------------------|----------------------------|
----------------------------|----------------------------|

                             
----------------------------|
----------------------------|
----------------------------|
--4--------6L-6-------------|
--4--------6L-6-------------|
--2--------4L-4-------------|

                                                     
----------------------------------------------------|
----------------------------------------------------|
----------------------------------------------------|
--6--------6--------6--------6--------6-----6--4----|
----------------------------------------------------|
----------------------------------------------------|

                                                     
----------------------------------------------------|
----------------------------------------------------|
-----6----------------------------------------------|
--6-----6h-4--6-----6--------6--------6-------------|
----------------------------------------------------|
----------------------------------------------------|

                                                                                
--------------------------4-----------------------2--4--------------------------
--2-----------------------------------------------------------------------------
--------------------------------------------------------------------------------
--------------------------------------------------------------------------------
--------------------------------------------------------------------------------
--------------------------------------------------------------------------------

                                                     
-----------------------|--------4--5--4-----0-------|
-----------------------|--2-------------------------|
-----------------------|----------------------------|
-----------------------|----------------------------|
-----------------------|----------------------------|
-----------------------|----------------------------|

                                                                                
--2-----------------------4--2-----------0-----------------------------------4--
-----------------------------------------------------4--------------------------
--------------------------------------------------------------------------------
--------------------------------------------------------------------------------
--------------------------------------------------------------------------------
--------------------------------------------------------------------------------

                                                     
-----------------------|--0-------------------------|
-----------------------|-----4--2-----4-------------|
-----------------------|----------------------------|
-----------------------|----------------------------|
-----------------------|----------------------------|
-----------------------|----------------------------|

                                                                                
--------------------------4-----------------------2--4--------------------------
--2-----------------------------------------------------------------------------
--------------------------------------------------------------------------------
--------------------------------------------------------------------------------
--------------------------------------------------------------------------------
--------------------------------------------------------------------------------

                                                     
-----------------------|--------4--5--4-----0-------|
-----------------------|--2-------------------------|
-----------------------|----------------------------|
-----------------------|----------------------------|
-----------------------|----------------------------|
-----------------------|----------------------------|

                                                               
--2-----2--0-----0--2--4----|----------------|----------------|
--------------4-------------|--2--0--2-------|----------------|
----------------------------|----------------|--2--0--2-------|
----------------------------|----------------|----------------|
----------------------------|----------------|----------------|
----------------------------|----------------|----------------|

                                                     
----------------------------------------------------|
--3--------3--------3--------3--------3-------------|
--2--------2--------2--------2--------2-------------|
--3-----3-----3-----3-----3-----3-----3-----3-------|
----------------------------------------------------|
----------------------------------------------------|

                                                     
----------------------------------------------------|
--1--------1--------1--------1--------1-------------|
--0--------0--------2--------2--------2-------------|
--2-----2-----2-----3-----3-----3-----3-----3-------|
----------------------------------------------------|
----------------------------------------------------|

                                                     
----------------------------------------------------|
----------------------------------------------------|
--3--------3--------3--------3--------3-------------|
--3--------3--------3--------3--------3-------------|
--5-----5-----5-----5-----5-----5-----5-----5-------|
----------------------------------------------------|

                                                     
----------------------------------------------------|
----------------------------------------------------|
--2--------2--------2--------2-----------------2----|
--2--------2--------2--------2--------0--2--3-------|
--3-----3-----4-----4-----4-----4-------------------|
----------------------------------------------------|

                                                     
----------------------------------------------------|
--3--------3--------3--------3--------3-------------|
--2--------2--------2--------2--------2-------------|
--3-----3-----3-----3-----3-----3-----3-----3-------|
----------------------------------------------------|
----------------------------------------------------|

                                                     
----------------------------------------------------|
--1--------1--------1--------1--------1-------------|
--0--------0--------0--------2--------2-------------|
--3-----3-----3-----3-----3-----3-----3-----3-------|
----------------------------------------------------|
----------------------------------------------------|

                                                     
----------------------------------------------------|
----------------------------------------------------|
--3--------3--------3--------3--------3-------------|
--3--------3--------3--------3--------3-------------|
--5-----5-----5-----5-----5-----5-----5-----5-------|
----------------------------------------------------|

                                                                      
----------------------------------------|----------------------------|
--5--6--8--6--5-------------------------|----------------------------|
-----------------7--6--7--9--------6----|--7--------5L-5-------------|
-----------------------------7--9-------|--------------------8-------|
----------------------------------------|----------------------------|
----------------------------------------|----------------------------|

                                                          
----------------------------|----------------------------|
----------------------------|----------------------------|
----------------------------|-----------5L-5-------------|
--7--------5L-5-------------|--8-------------------------|
--------------------8-------|----------------------------|
----------------------------|----------------------------|

                                                       ^
----------------------------------------------------|--2----|-----5--5-------|
--3--------3--------3-----------------3-------------|--3----|--3-------------|
--0--------0--------0-----------------2-------------|--2----|----------------|
--0--------0--------0-----------------2-------------|--0----|----------------|
--0-----0-----0-----0-----------0-----0-------------|--0----|----------------|
----------------------------------------------------|-------|----------------|


-----5--5-------|-----5--5-------|-----5--3-------|
--3-------------|--3-------------|-----------1----|
----------------|----------------|--2-------------|
----------------|----------------|----------------|
----------------|----------------|----------------|
----------------|----------------|----------------|


--1-----------------------------------------1--3----|--5----|--10L--|--10---||
--------------------------3-----------3h-4----------|-------|--10L--|--10---||
--------------2-------------------------------------|-------|-------|-------||
----------------------------------------------------|-------|-------|-------||
----------------------------------------------------|-------|-------|-------||
----------------------------------------------------|-------|-------|-------||






Title: Fragments of Hearts
Tempo = 92
Steel Guitar
GTR 2


Capo 4

E |-----------------------0----|-----------0--5--0----------|
B |-----------1----------------|----------------------------|
G |--------2-----------2-------|--------2-------------------|
D |-----2-----------2----------|----------------------------|
A |--0-------------------------|-----3----------------------|
E |--------------3-------------|--1-------------------------|


----------------------------|----------------------------|
-----------0-----------0----|-----------3--2-------------|
--------0-----------0-------|--------2-------------------|
-----0-----------0----------|-----2----------------------|
----------------------------|--0-------------------------|
--3-----------0-------------|----------------------------|


----------------------------|----------------------------|----------|
--1-----------------0-------|----------------------------|--3--0----|
--2-------------------------|-----------2L-------2-------|--0--0----|
--2--------------2----------|--------3-------------------|--2--2----|
--0-------------------------|-----3----------------------|----------|
--------------3-------------|--1-------------------------|--0--0----|


----------------------------|----------------|--------------------0-------|
--1-----------0--------0----|--1-----0-------|--------------1-------------|
--2-----------------0-------|----------------|-----------2-----2----------|
--0-----2--------2----------|-----2-----2----|--------3-------------------|
----------------------------|--0-------------|-----3----------------------|
--1-----------0-------------|--------3-------|--1-------------------------|


----------------------------|----------------|----------------------------|
-----------0--3-------------|----------------|-----------------1----------|
--------0-------------------|----------------|--------------0-------------|
-----0----------------------|--2--0--2-------|-----------2----------------|
----------------------------|--0-----0-------|--3-----3-------------------|
--3-------------------------|-----0----------|-----3----------------------|


----------------------------|----------------------------|
--------------0--3----------|-----------------1----------|
--------0--2----------------|--------------0-------------|
-----0----------------------|-----------2----------------|
----------------------------|--3-----3-------------------|
--3-------------------------|-----3----------------------|


----------------------------|----------------------------|
--------------0--3----------|----------------------------|
--------0--2----------------|-----------------2----------|
-----0----------------------|--------------2-----2-------|
----------------------------|--0-----0h-3-----------3----|
--3-------------------------|-----0----------------------|


----------------------------|-------|--------------0-----0-------|
----------------------------|-------|----------------------------|
--------------0-------------|-------|-----------2-----2-----2----|
-----------0-----0----------|-------|--------3-------------------|
-----0h-2-----------2-------|-------|-----3----------------------|
--3--------------------3L---|--3----|--1-------------------------|


----------------------------|----------------------------|
--------------1-----1-------|--------------------1-------|
-----------0-----0-----0----|--------------2--------2----|
--------2-------------------|--------0h-3-----3----------|
-----2----------------------|-----0----------------------|
--0-------------------------|--1-------------------------|


-----------0-----0-----0----|----------------------------|
----------------------------|--------------1-----1-------|
-----0----------------------|-----------2-----2-----2----|
--------2-----2-----2-------|--------3-------------------|
--3-------------------------|-----3----------------------|
----------------------------|--1-------------------------|


----------------------------|----------------------------|
--------------1--3----------|----------------------------|
-----------0----------------|--------------2-------------|
--------2-------------------|--------0--3-----0----------|
-----3----------------------|-----0----------------------|
--0-------------------------|--1-------------------------|


----------------------------|----------------|----------------|
----------------------------|-----3----------|--1-------------|
--------------1-------------|-----2----------|--2-------------|
--------0--2--------0-------|-----3----------|--2--0----------|
-----2-----------------2----|--1--1----------|--0-----3-------|
--0-------------------------|----------------|----------------|


----------------------------|----------------------------|----------------|
----------------------------|--------------------3--3----|--2-------------|
-----------2--0-------------|--2--------------2----------|--2-------------|
--------3-------------------|--------2--0--2-------------|--2-------------|
-----3----------------------|-----0----------------------|--0--0----------|
--1-------------------------|----------------------------|----------------|


----------------------------|----------------------------|
--------------1-------------|----------------------------|
-----------2----------------|--------------0-------------|
--------3-------------------|-----------2-----2----------|
-----3----------------------|--3-----3-----------3-------|
--1-------------------------|-----3-----------------3----|


----------------------------|----------------------------|
----------------------------|----------------------------|
----------------------------|----------------------------|
-----------0--3-------------|--------2-----2-------------|
--1-----1-------------------|-----2-----2----------------|
-----1----------------------|--0-----------0-------------|


----------------------------|----------------------------|
--------------------0-------|----------------------------|
--------2-------------------|--------2-------------------|
-----2-----------2----------|--------------3-------------|
--0-------------------------|-----3----------------------|
--------------3-------------|--1-------------------------|


----------------------------|----------------------------|
-----------0-----------0----|----------------------------|
--------0-----------0-------|--2-----------------2-------|
-----0--------2h-0----------|--------3-------------------|
----------------------------|-----0-----------2----------|
--3-------------------------|--1-----------0-------------|


----------------------------|----------------------------|
--------------------0-------|----------------------------|
--------2-------------------|--------2-------------------|
-----2-----------2----------|--------------3-------------|
--0-------------------------|-----3----------------------|
--------------3-------------|--1-------------------------|


----------------------------|----------------|----------------------------|
-----------0-----------0----|----------------|--------------1-------------|
--------0-----------0-------|----------------|-----------0-----0----------|
-----0--------2h-0----------|--2--0--2-------|--------2-----------2-------|
----------------------------|--0-----0-------|-----3----------------------|
--3-------------------------|-----0----------|--3-------------------------|


----------------------------|----------------------------|
--------------0-------------|--------------1-------------|
-----------0-----0----------|-----------0-----0----------|
--------0-----------0-------|--------2-----------2-------|
-----2----------------------|-----3----------------------|
--3-------------------------|--3-------------------------|


--------------------------------------------3--7----|
-----------------------------------------3----------|
--------------------0-----------------0-------------|
--------------0--------------------0----------------|
--------2-----------------------2-------------------|
--3--------------------------3----------------------|


--8--7--5--0----------------------------------------|
--------------1--0----------------------------------|
--------------------2-------------------------------|
-----------------------2L-2-------------------------|
----------------------------------------------------|
----------------------------------------------------|


--7--5--3-------------------------------------------|--3----|
-----------3--------------------------------3--3----|-------|
--------------4--2--0-----------------4--4----------|-------|
-----------------------0-----------5----------------|-------|
--------------------------------5-------------------|-------|
----------------------------------------------------|-------|


----------------------------|----------------------------|
----------------------------|----------------------------|
--------2-----------2-------|--------0-----------0-------|
----------------------------|----------------------------|
-----3-----3-----3----------|-----2-----2-----3-----3----|
--1-----------1-------------|--0-----------0-------------|


----------------------------|----------------------------|
----------------------------|----------------------------|
----------------------------|----------------------------|
----------------------------|--------2-----------2-------|
-----0--3--0-----0--3--0----|-----3-----3--2h-3-----3----|
--1-----------1-------------|--0-------------------------|


----------------------------|----------------------------|
----------------------------|----------------------------|
--------2-----------2-------|--------0-----------0-------|
----------------------------|----------------------------|
-----3-----3-----3-----3----|-----3-----3-----3-----3----|
--1-----------1-------------|--0-----------0-------------|


----------------------------------------------------|
----------------------------------------------------|
--2--------------------------------0--2-------------|
--------0--2--3-----------0-----3-------------------|
--------------------0-----------------------0-------|
--1-------------------------------------------------|


----------------------------|----------------------------|
----------------------------|-----------3L-3-------------|
--------2-----------1-------|--------2-------------------|
----------------------------|-----3--------------3-------|
-----2-----2-----2-----2----|--1-------------------------|
--0-----------0-------------|----------------------------|


----------------------------|-----------0L-0-------------|
----------------------------|--3--------0L-0-------------|
--------2-----------2-------|--2--------0L-0-------------|
-----2-----2L-2-------------|--3--------2L-2-------------|
--0-------------------------|--0-------------------------|
----------------------------|-----------------------0----|


----------------------------------------------------|
----------------------------------------------------|
--2--------2--------2--------2--------2-----2-------|
--2--------2--------2--------2--------2-----2-------|
--0-----0-----0-----0-----0-----0-----0-----0-------|
----------------------------------------------------|


----------------------------------------------------|
----------------------------------------------------|
-----2--------2-----2--------2--------2-------------|
-----2--------2-----2--------2-----------2----------|
--0-----0-----0-----0-----0-----0-----0-----0-------|
----------------------------------------------------|


-----------------------0----|-----------0--5--0----------|
-----------1----------------|----------------------------|
--------2-----------2-------|--------2-------------------|
-----2-----------2----------|----------------------------|
--0-------------------------|-----3----------------------|
--------------3-------------|--1-------------------------|


----------------------------|----------------------------|
-----------0-----------0----|-----------1-----------0----|
--------0-----------0-------|--------2-----------0-------|
-----0-----------0----------|-----0-----------2----------|
----------------------------|----------------------------|
--3-----------0-------------|--1-----------0-------------|


-----------------------0----|-----------0--5--0----------|
-----------1----------------|----------------------------|
--------2-----------2-------|--------2-------------------|
-----2-----------2----------|----------------------------|
--0-------------------------|-----3----------------------|
--------------3-------------|--1-------------------------|


----------------------------|
-----------0----------------|
--------0-------------------|
-----0--------------2-------|
-----------------2----------|
--3-----------0-------------|


----------------------------------------------------|----------------|
----------------------------------------------------|----------------|
-----------------------------------------------2----|--3--1--3-------|
--2-----------0-----------2-----------------2-------|----------------|
--0-----------------------0-----------0--3----------|----------------|
--------------0-------------------------------------|----------------|


----------------|----------------|----------------|----------------|
----------------|----------------|----------------|----------------|
-----3-----3----|-----1-----1----|----------------|-----2-----3----|
--4-----4-------|--3-----3-------|--1--4--1--4----|----------------|
----------------|----------------|----------------|--4-----4-------|
----------------|----------------|----------------|----------------|


----------------|----------------|----------------|--------1-------|
----------------|----------------|----------------|----------------|
-----3-----3----|-----1-----1----|----------------|----------------|
--4-----4-------|--3-----3-------|--1--4--1--4----|--3-------------|
----------------|----------------|----------------|-----3-----3----|
----------------|----------------|----------------|----------------|


----------------------------|----------------------------|
----------------------------|----------------------------|
----------------------------|----------------------------|
-----------4--------1-------|--------------3--------3----|
--2-----2-----2--------2----|--1-----1--4--------4-------|
-----2----------------------|-----1----------------------|


----------------------------|----------------------------|
----------------------------|----------------------------|
----------------------------|----------------------------|
----------------------------|-----------------------3----|
--4--------3L-3-------------|--1--------1--------1-------|
-----------1L-1-------------|----------------------------|


----------------------------|----------------------------|
----------------------------|-----------2-----------2----|
----------------------------|--------3-----------3-------|
--------3--4--3-------------|--3h-4--------3h-4----------|
--1-------------------------|----------------------------|
-----1----------------------|----------------------------|


----------------------------|----------------------------|-------|----|----|
-----------1-----------1----|----------------------------|-------|----|----|
--------1-----------1-------|-----------3-----------3----|-------|----|----|
--1h-3--------1h-3----------|--------4-----------4-------|-------|----|----|
----------------------------|--4h-6--------4h-6----------|--6----|----|----|
----------------------------|----------------------------|-------|----|----|


--------------6-------------|-------||
--------3--6----------------|-------||
-----3----------------------|-------||
--3-------------------------|-------||
----------------------------|-------||
----------------------------|-------||
Login or Register to remove this ad.