Ads

Fragments of Hearts (Ni no Kuni) Guitar Tab

Submitted: Mar 21, 2013 by caeonosphere

5
Average: 5 (5 votes)
Download | Listen
Game: Ni no Kuni
Composer(s): Joe Hisaishi
Style: Arrangement, Fingerstyle

This song is also called Kokoro no Kakera

AutoScroll: Slow | Medium | Fast
Ni no Kuni: Wrath of the White Witch -- Fragments of Hearts (Kokoro no Kakera)

Composed by: Joe Hisaishi
Arranged by: Tom Quinn

This is my first ever tab, so it's no doubt a little rough around the
edges. I couldn't find a tab for this great song, though, and I figured
this was better than nothing. Let me know what improvements can be made
or if you record a video of it. Find me at bit.ly/tomquinn.

Tuning: EADGBE (Capo 2)

Intro

|----2-3-2-------|----2-3-2-------|0---0-----------|----------------
|0-------------2-|0-----------3---|------3-2-------|------5-4-------
|------------2---|----------------|------------2---|4---4---4-------
|--0-------2-----|--------0-------|--2---------4---|--4-----4-------
|2-------0-------|--2---------2---|0---------4-----|2-------2-------
|----------------|3---------------|--------2-------|----------------

Verse + Chorus

|----2---2-------|----2-3-2-------|0---0-------2---|----------------
|0-------------2-|0-----------3---|------3-2---2---|3-2-0---2-------
|------------2---|----------------|------------2---|--------------3-
|----------2-----|--------0-------|--2-------2-----|------------4---
|2-------0-------|--2---------2---|0-------0-------|----------4-----
|----------------|3---------------|----------------|3---0---2-------

|----2---2-------|----2-3-2-------|0---0-------0-2-|----------------
|0-------------2-|0-----------3---|------3-2-3-----|----------------
|------------2---|----------------|----------------|4-----2-----4---
|--0-------2-----|--------0-------|--2-------------|4-----2-----4---
|2-------0-------|--2---------2---|0-------0-------|2-----0-----2---
|----------------|3---------------|------------2---|----------------

|------0-2-------|0---------------|------0-2-------|----5-----5-5\2-
|--3-3---3---3---|------0-2-0-----|--3-3---3---3---|5-------5-------
|----2---2---4---|----2-------2---|----2---2---2---|------6---------
|0-----------0---|--2-----------2-|0-----------0---|----7-----------
|----------------|0---------------|----------------|--7-------------
|----------------|----------------|----------------|5---------------

|----------5-5-2-|0-------0-----5-|7-----7-7-9-----|5-------5-0-0-2-
|3---------------|------2-2-7-7---|----8---8--10-8-|------7---------
|----4-----------|----2-----------|--7-----7-------|----7-----------
|--4---4---------|--2-------------|5-------5-------|--7-------------
|2-------2-------|0---------------|----------------|5---------------
|----------------|----------------|----------------|----------------

|3-----3-3-5-2-0-|2-------------5-|7-----7-7-9-----|5-------5-0-0-2-
|--------3-------|----3-----7-7---|----8---8--10-8-|------7-7-------
|--------4-------|--2---2---------|--7-----7-------|----7---7-------
|----4-----------|0-------0-------|5-------5-------|--7-------------
|--5-------------|----------------|----------------|5---------------
|3---------------|----------------|----------------|----------------

|3-----3-3-5-2-0-|2-------2---2-2-|2-0-0---0-/3--2-|---------------2
|0-------3-------|------5-4-------|1-----4-1-------|3-----------023-
|----4---4-------|----4---4-------|0-------0-------|----4-----------
|--0-------------|--4-----4-------|----------------|--4---4---------
|----------------|2-------2-------|----------------|2-------2-------
|3---------------|----------------|----------------|----------------

|7-------5---9---|7-------7-
|----8-----------|--------7-
|--7---7---------|------8---
|5-------4---7---|----9-----
|----------------|--9-------
|----------------|7---------

Interstitial 1

----5-|7--------7/9-5-0|0-2-2-----------|0-------0-2-----|----------------
7-7---|----8-----------|----3-------3-3-|------1-----3---|----------------
------|--7---7---------|--2---2---------|----0---------4-|4-----4-3-------
------|5-------5-------|0-------0-------|--2-------------|----4---4-------
------|----------------|----------------|3---------------|--4-----4-------
------|----------------|----------------|----------------|2-------2-------

(Repeat verse and chorus)

Interstitial 2

|----2---2-------|----2-3-2-------|0---0-------0-2-|----------------
|0-------------2-|0-----------3---|------3-2-3-----|----------------
|------------2---|----------------|----------------|4-----2-----4---
|--0-------2-----|--------0-------|--2-------------|4-----2-----4---
|2-------0-------|--2---------2---|0-------0-------|2-----0-----2---
|----------------|3---------------|------------2---|----------------

|----------------|----------3-3-6-
|----------------|----------------
|------------5---|--3-----5-------
|----------045---|--3-----5-------
|--------24--3---|--1-----3-------
|----------------|----------------

Modulated Chorus

|8-----8-8-10----|6-------8-------|4-----4-4-6-3---|3---------3-3-6-
|----9---9--11-9-|------8---6-6-8-|--------4-----6-|----4-----------
|--8-----8-------|----8-----------|--------5-------|--3---3---------
|6-------6-------|--8-------------|----5-----------|----------------
|----------------|6---------------|--6-------------|6-------6-------
|----------------|----------------|4---------------|----------------

|8-----8-8-10----|6-------8-------|4-----4-4-6-3---|3-------3---3-3-
|----9---9--11-9-|------8---6-6-8-|--------4-----6-|------6-5-------
|--8-----8-------|----8-----------|--------5-------|----5---5-------
|6-------6-------|--8-------------|----5-----------|--5-----5-------
|----------------|6---------------|--6-------------|3-------3-------
|----------------|----------------|4---------------|----------------

|3-1-1-0-1-/4--3-|---------------3|8-----6---6-6/10|8---------------
|2-------2-------|4------------34-|9-----8---------|------8---------
|1-------1-------|----5-------5---|----------------|--------10------
|----------------|--5---5---------|6-----5---------|----10------12--
|----------------|3-------3-------|----------------|--10------------
|----------------|----------------|----------------|8---------------

|8---------------|----------------
|8---------------|----------------
|9---------------|----------------
|10--------------|----------------
|10--------------|----------------
|8---------------|----------------
Login or Register to remove this ad.

2 comments on Fragments of Hearts

Great stuff

5

Great stuff

Created a Guitar Pro Version of this

5

I altered some parts so that it sounds better, but other than that it's the same.

https://drive.google.com/file/d/0B3MYcCYunhNZZEt0eVNEN0tRVVU
/view?usp=sharing