Ads

Dwellings (Ultima III: Exodus) Guitar Tab

Submitted: Aug 18, 2008 by Sho (Last updated: Oct 22, 2009)

5
Average: 5 (1 vote)
Download | Listen
Game: Ultima III: Exodus
Composer(s): Tsugutoshi Goto
Style: Arrangement, Fingerstyle

AutoScroll: Slow | Medium | Fast
DWELLINGS (TOWNS)

(From ULTIMA EXODUS BY FCI)

Tab by: Sho

Gtr I (E A D G B E)


 4/4
  Gtr I
  E E E E E E E E E E E E E E E E E E E E E E E E E E E E E E E E Q Q
|-2---0---3-2-0---5---0---3---0---3---0---3-2-0-2-----0-------0---7---|
|---3-----------3---3-------3-------3---------------3-------3---------|
|-------2---------------2-------2-------3---------2-----2-------2-----|
|-0-------0-------0-------0-------0-------0-------0-------0---------5-|
|-----------------------------------------------------------------7---|
|---------------------------------------------------------------------|


  S S E E E Q Q S S E E E E E E E E E E E E E E E E E E E E E E E E E E
|-3-5-3-2-0-5---2-3-2-0-----0-2-2-0-----0-2-2-0---5-0---0-5-0---0-5-0---|
|-----------------------3-3---------3-3---------3-----------------------|
|-------2---2-----------------------------------------------------------|
|---------------4---------2---------2-2---------2-7---7---5---5---4---4-|
|-4-----------5-------2-------------------------------------------------|
|-------------------------------0-----------0---------------------------|


  E E E E E E Q E E Q E E Q E E Q E E T T T E E E E E E E T T T E E E E
|-0-5-0---0-5-0-0-5-0-0-5-0-0-5-0-0-------------------------------------|
|-----------------------------------3-2-3-2-0---0-2-3-0-5-3-5-3-2-0---0-|
|---------------------------------------------2---------------------2---|
|---2---2---7-7-7-5-5-5-4-4-4-2-2-2-0-----------------0-----------------|
|-------------------------------------------------------4---------------|
|-----------------------------------------------------------------------|


  E E E T T T E E E T T T E E E T T T E E E T T T E E E E E E E E E E E
|---0-2-0-2-0---0-2-0-2-0---0-2-0-2-0---0-2-0-2-0---0-------2-----2-----|
|-2-----------3-----------3-----------3-----------3-----3-0---3-0---3---|
|-----------------------------------------------------2---------------2-|
|-----------------------------------------------------------0-0---------|
|---4-2-----------1-----------0-----------------------------------------|
|-----------------------------------------4-----------3---------------2-|


                                Em
  E E E E E E E E E E E E E E E Q Q Q Q Q Q Q Q
|-----2-----2---------1-----1---0-2-3-0-0-2-3-0----|
|-3-0---3-0---3---3-0---3-0---3-0-3-0-2-0-3-0-2----|
|---------------2-----------2---0-4-0-2-0-4-0-2----|
|-----0-0-------------0-0-------2-4-0-2-2-4-0-2----|
|-------------------------------2-2-2-0-2-2-2-0----|
|---------------1---------------0-2-3-0-0-2-3-0----|




--------------------------------------------------------------------------------


Duration Legend
---------------
W - whole; H - half; Q - quarter; E - 8th; S - 16th; T - 32nd; X - 64th; a - acciaccatura
+ - note tied to previous; . - note dotted; .. - note double dotted
Uncapitalized letters represent notes that are staccato (1/2 duration)
Irregular groupings are notated above the duration line
Duration letters will always appear directly above the note/fret number it represents the
duration for.  Duration letters with no fret number below them represent rests.  Multi-
bar rests are notated in the form Wxn, where n is the number of bars to rest for.  Low
melody durations appear below the staff
Login or Register to remove this ad.

2 comments on Dwellings

Nicely done.

Great to see someone do a piece from a lesser tabbed game. I never came close to finishing Exodus, but I remember making characters like it was going out of style. I also remember the unique and interesting soundtrack.

Thanks for the walk down memory lane!

Thanks!

I really appreciate the comment.