Ads

Overworld (Main Theme) (Super Mario Brothers) Guitar Tab

Submitted: Jan 23, 2008 by insomniac (Last updated: Sep 26, 2009)

4
Average: 4 (5 votes)
Download | Listen
Game: Super Mario Brothers
Composer(s): Koji Kondo
Style: 2 or more instruments, Transcription
Series: Mario

AutoScroll: Slow | Medium | Fast
Gtr I (E A D G B E) - 'Sequenced by P.J. Barnes'
Gtr II (E A D G B E) - 'Countermelody'
Gtr III (E A D G B E) - 'Bass Line'

  Q=105
 4/4
  Gtr I
   S  S S  S S  S  S S  S S E  Q        S E  S E  S S S  S S  S S  S  S S
|-12-12---12------12---15------------|------------------------------------|
|--------------13--------------------|-13--------------------12-----------|
|-----------------------------12-----|------12----------14--------15-14---|
|------------------------------------|-----------14-----------------------|
|------------------------------------|------------------------------------|
|------------------------------------|------------------------------------|
|
| Gtr II
|  S  S S  S S  S  S S  S S E  S S E    S E  S E  S S S  S S  S S  S  S S
|--2--2----2----2--2----7------------|------------------------------------|
|------------------------------8-----|------------------------------------|
|------------------------------------|--9---------------------------------|
|------------------------------------|------10----------10---12---11-10---|
|------------------------------------|-----------10-----------------------|
|------------------------------------|------------------------------------|
|
| Gtr III
|  S  S S  S S  S  S S  S S E  S S E    S E  S E  S S S  S S  S S  S  S S
|-----------------------3------------|------------------------------------|
|------------------------------------|------------------------------------|
|------------------------------------|------------------------------------|
|--0--0----0----0--0-----------5-----|--5---------------------------------|
|------------------------------------|-------7-----------8---10----9--8---|
|------------------------------------|------------8-----------------------|


   S  S S  S  S S  S  S S  S S  S  S  S E    S E  S E  S S S  S S  S S  S  S S
|----12---15-17---13-15---12--------------|------------------------------------|
|------------------------------13-15-12---|-13--------------------12-----------|
|-12--------------------------------------|------12----------14--------15-14---|
|-----------------------------------------|-----------14-----------------------|
|-----------------------------------------|------------------------------------|
|-----------------------------------------|------------------------------------|
|
|  S  S S  S  S S  S  S S  S S  S  S  S E    S E  S E  S S S  S S  S S  S  S S
|----------7--8---------------------------|------------------------------------|
|-----8-----------10-12---10--------------|------------------------------------|
|-------------------------------9-10------|------------------------------------|
|-10---------------------------------12---|-14---------------------------------|
|-----------------------------------------|------15----------15---17---16-15---|
|-----------------------------------------|-----------15-----------------------|
|
|  S  S S  S  S S  S  S S  S S  S  S  S E    S E  S E  S S S  S S  S S  S  S S
|-----------------------------------------|------------------------------------|
|----------5--6-------5-------------------|------------------------------------|
|-----5------------7-------5--------------|------------------------------------|
|-------------------------------7--9------|------------------------------------|
|--7---------------------------------10---|-10----------------8---10----9--8---|
|-----------------------------------------|------12----8-----------------------|


   S  S S  S  S S  S  S S  S S  S  S  S E
|----12---15-17---13-15---12--------------|
|------------------------------13-15-12---|
|-12--------------------------------------|
|-----------------------------------------|
|-----------------------------------------|
|-----------------------------------------|
|
|  S  S S  S  S S  S  S S  S S  S  S  S E
|-----------------------------------------|
|-----------------------------------------|
|---------16-17---------------------------|
|----17-----------19-21---19--------------|
|-15---------------------------19-20------|
|------------------------------------22---|
|
|  S  S S  S  S S  S  S S  S S  S  S  S E
|-----------------------------------------|
|----------5--6-------5-------------------|
|-----5------------7-------5--------------|
|-------------------------------7--9------|
|--7---------------------------------10---|
|-----------------------------------------|


  E    S  S  S  S  S  S S  S  S  S  S  S  S  S
|-----15-14-13---------------------------------|
|--------------16----17---------13-------13-15-|
|-------------------------13-14-------14-------|
|----------------------------------------------|
|----------------------------------------------|
|----------------------------------------------|
|
| E    S  S  S  S  S  S S  S  S  S  S  S  S  S
|-----------------------------1--3--------0--1-|
|--------------------------------------1-------|
|-----21-20-19---------------------------------|
|--------------21----22------------------------|
|----------------------------------------------|
|-------------------------24-------------------|
|
| S E     S  E     S  S S  E     S  S  S  S  S
|----------------------------------------------|
|----------------------------------------------|
|----------------------------------------------|
|-----------------10------------10-10----------|
|--------10-------------8-----------------8----|
|-8--------------------------------------------|


  E    S  S  S  S S  S S  S S  S  S S  E
|-----15-14-13-----------20---20-20--------|
|--------------16---17---------------------|
|------------------------------------------|
|------------------------------------------|
|------------------------------------------|
|------------------------------------------|
|
| E    S  S  S  S S  S S  S S  S  S S  E
|-----12-11-10-----------13---13-13--------|
|--------------12---13---------------------|
|------------------------------------------|
|------------------------------------------|
|------------------------------------------|
|------------------------------------------|
|
| S E     S  E    S  S S  S S  S  S S  S S
|------------------------15---15-15--------|
|------------------------------------------|
|--------------------5---------------------|
|-----------------5------------------------|
|---------7--------------------------------|
|-8-----------------------------------15---|


  E    S  S  S  S S  S S  S  S  S S  S  S  S
|-----15-14-13-------------------------------|
|--------------16---17---------13------13-15-|
|------------------------13-14------14-------|
|--------------------------------------------|
|--------------------------------------------|
|--------------------------------------------|
|
| E    S  S  S  S S  S S  S  S  S S  S  S  S
|-----12-11-10-------------------------------|
|--------------12---13-----------------------|
|--------------------------------------------|
|------------------------14-15-17------14-15-|
|-----------------------------------15-------|
|--------------------------------------------|
|
| S E     S  E    S  S S  E     S S  S  S  S
|--------------------------------------------|
|-------------------------------1-1----------|
|-----------------5--------------------------|
|---------5------------3----------------3----|
|-3------------------------------------------|
|--------------------------------------------|


  E    S S S  S E  S S E   Q
|----------------------------------|
|-----16-----15---13---------------|
|----------------------------------|
|----------------------------------|
|----------------------------------|
|----------------------------------|
|
| E    S S S  S E  S S E   Q
|----------------------------------|
|----------------------------------|
|-----13---------------------------|
|------------15---14---------------|
|----------------------------------|
|----------------------------------|
|
| S S  S S S  S E  S E   S S S S S
|----------------------------------|
|------------------1---------------|
|------1------3----------0-0-------|
|----------------------------------|
|-3----------------------------3---|
|----------------------------------|


  E    S  S  S  S S  S S  S  S  S S  S  S  S
|-----15-14-13-------------------------------|
|--------------16---17---------13------13-15-|
|------------------------13-14------14-------|
|--------------------------------------------|
|--------------------------------------------|
|--------------------------------------------|
|
| E    S  S  S  S S  S S  S  S  S S  S  S  S
|-----12-11-10-------------------------------|
|--------------12---13-----------------------|
|--------------------------------------------|
|------------------------14-15-17------14-15-|
|-----------------------------------15-------|
|--------------------------------------------|
|
| S E     S  E    S  S S  E     S S  S  S  S
|--------------------------------------------|
|-------------------------------1-1----------|
|-----------------5--------------------------|
|---------5------------3----------------3----|
|-3------------------------------------------|
|--------------------------------------------|


  E    S  S  S  S S  S S  S S  S  S S  E
|-----15-14-13-----------20---20-20--------|
|--------------16---17---------------------|
|------------------------------------------|
|------------------------------------------|
|------------------------------------------|
|------------------------------------------|
|
| E    S  S  S  S S  S S  S S  S  S S  E
|------------------------------------------|
|-----17-16-15-----------18---18-18--------|
|--------------16---17---------------------|
|------------------------------------------|
|------------------------------------------|
|------------------------------------------|
|
| S E     S  E    S  S S  S S  S  S S  S S
|------------------------15---15-15--------|
|--------------------1---------------------|
|-----------------0------------------------|
|---------2--------------------------------|
|-3----------------------------------------|
|-------------------------------------15---|


  E    S  S  S  S S  S S  S  S  S S  S  S  S
|-----15-14-13-------------------------------|
|--------------16---17---------13------13-15-|
|------------------------13-14------14-------|
|--------------------------------------------|
|--------------------------------------------|
|--------------------------------------------|
|
| E    S  S  S  S S  S S  S  S  S S  S  S  S
|--------------------------------------------|
|-----17-16-15-------------------------------|
|--------------16---17-----------------------|
|--------------------------------------------|
|------------------------19-20-22------19-20-|
|-----------------------------------20-------|
|
| S E     S  E    S  S S  E     S S  S  S  S
|--------------------------------------------|
|-------------------------------1-1----------|
|-----------------5--------------------------|
|---------5------------3----------------3----|
|-3------------------------------------------|
|--------------------------------------------|


  E    S S S  S E  S S E   Q          S  S S  S S  S  S S  S  S S  S  S S E
|----------------------------------|----------------------12------------------|
|-----16-----15---13---------------|-13-13---13---13-15------13---------------|
|----------------------------------|------------------------------14-12-------|
|----------------------------------|------------------------------------------|
|----------------------------------|------------------------------------------|
|----------------------------------|------------------------------------------|
|
| E    S S S  S E  S S E   Q          S  S S  S S  S  S S  S  S S  S  S S E
|----------------------------------|------------------------------------------|
|----------------------------------|----------------------------------1-------|
|----------------------------------|------------------------------------------|
|-----18---------------------------|-18-18---18---18-20-----------------------|
|------------20---19---------------|----------------------22------------------|
|----------------------------------|-------------------------24---24----------|
|
| S S  S S S  S E  S E   S S S S S    S  E    S E     S S  S  E    S  E   S S
|----------------------------------|------------------------------------------|
|------------------1---------------|------------------------------------------|
|------1------3----------0-0-------|------------------------------------------|
|----------------------------------|------------------6----5------------------|
|-3----------------------------3---|----------6--------------------3----------|
|----------------------------------|--4-----------------------------------3---|


   S  E    S S  S  S  S H
|--------------------12-------------|
|-13-13---13---13-15----------------|
|-----------------------------------|
|-----------------------------------|
|-----------------------------------|
|-----------------------------------|
|
|  S  S S  S S  S  S  S H
|--4--4----4----4--6----------------|
|---------------------8-------------|
|-----------------------------------|
|-----------------------------------|
|-----------------------------------|
|-----------------------------------|
|
|  S  E    S E     S  S S E S E S S
|-----------------------------------|
|-----------------------------------|
|-----------------------------------|
|------------------6----5-----------|
|----------6----------------3-------|
|--4----------------------------3---|


   S  S S  S S  S  S S  S  S S  S  S S E
|----------------------12-------------------|
|-13-13---13---13-15------13----------------|
|------------------------------14-12--------|
|-------------------------------------------|
|-------------------------------------------|
|-------------------------------------------|
|
|  S  S S  S S  S  S S  S  S S  S  S S E
|-------------------------------------------|
|--9--9----9----9-11------------------------|
|----------------------12-------------------|
|-------------------------14---14-----------|
|---------------------------------15--------|
|-------------------------------------------|
|
|  S  E    S E     S S  S  E    S  E   S S
|-------------------------------------------|
|-------------------------------------------|
|-------------------------------------------|
|------------------6----5-------------------|
|----------6--------------------3-----------|
|--4-----------------------------------3----|


   S  E    E    S  E    S S E  Q        S E  S E  S S S  S S  S S  S  S S
|-12-12---12------12---15------------|------------------------------------|
|--------------13--------------------|-13--------------------12-----------|
|------------------------------------|------12----------14--------15-14---|
|------------------------------------|-----------14-----------------------|
|------------------------------------|------------------------------------|
|------------------------------------|------------------------------------|
|
|  S  S S  S S  S  S S  S S E  S S E    S E  S E  S S S  S S  S S  S  S S
|------------------------------------|------------------------------------|
|------------------------------------|------------------------------------|
|----------------------16------------|------------0-----------------------|
|-16-16---16---16-16----------17-----|------------------------------------|
|------------------------------------|-19---------------------------------|
|------------------------------------|------20----------20---22---21-20---|
|
|  S  S S  S S  S  S S  S S E  S S E    S E  S E  S S S  S S  S S  S  S S
|-----------------------3------------|------------------------------------|
|------------------------------------|------------------------------------|
|------------------------------------|------------------------------------|
|------------------------------5-----|--5---------------------------------|
|--5--5----5----5--5-----------------|-------7-----------8---10----9--8---|
|------------------------------------|------------8-----------------------|


   S  S S  S  S S  S  S S  S S  S  S  S E    S E  S E  S S S  S S  S S  S  S S
|----12---15-17---13-15---12--------------|------------------------------------|
|------------------------------13-15-12---|-13--------------------12-----------|
|-12--------------------------------------|------12----------14--------15-14---|
|-----------------------------------------|-----------14-----------------------|
|-----------------------------------------|------------------------------------|
|-----------------------------------------|------------------------------------|
|
|  S  S S  S  S S  S  S S  S S  S  S  S E    S E  S E  S S S  S S  S S  S  S S
|-----------------------------------------|------------------------------------|
|-----------------------------------------|-------1-----------1----3----2--1---|
|-----------------------------------------|------------0-----------------------|
|---------21-22------21---19--------------|------------------------------------|
|----22-----------24-----------19-20------|------------------------------------|
|-20---------------------------------22---|-24---------------------------------|
|
|  S  S S  S  S S  S  S S  S S  S  S  S E    S E  S E  S S S  S S  S S  S  S S
|-----------------------------------------|------------------------------------|
|----------5--6-------5-------------------|------------------------------------|
|-----5------------7-------5--------------|------------------------------------|
|-------------------------------7--9------|------------------------------------|
|--7---------------------------------10---|-10----------------8---10----9--8---|
|-----------------------------------------|------12----8-----------------------|


   S  S S  S  S S  S  S S  S S  S  S  S E
|----12---15-17---13-15---12--------------|
|------------------------------13-15-12---|
|-12--------------------------------------|
|-----------------------------------------|
|-----------------------------------------|
|-----------------------------------------|
|
|  S  S S  S  S S  S  S S  S S  S  S  S E
|-----3----7--8---------------------------|
|--1--------------10-12---10--------------|
|-------------------------------9-10------|
|------------------------------------12---|
|-----------------------------------------|
|-----------------------------------------|
|
|  S  S S  S  S S  S  S S  S S  S  S  S E
|-----------------------------------------|
|----------5--6-------5-------------------|
|-----5------------7-------5--------------|
|-------------------------------7--9------|
|--7---------------------------------10---|
|-----------------------------------------|


   S  S S  S  E    S S  S  S S  S  S  S E
|-12----------------------13---13-----------|
|----13-------------------------------------|
|---------12------13---14---------14--------|
|-------------------------------------------|
|-------------------------------------------|
|-------------------------------------------|
|
|  S  S S  S  E    S S  S  S S  S  S  S E
|-------------------------------------------|
|-13----------------------13---13-----------|
|----14-------------------------------------|
|---------14------14---15---------15--------|
|-------------------------------------------|
|-------------------------------------------|
|
|  S  E    S  S S  S S  S  S S  S  S  S S S
|-------------------------------------------|
|-------------------------------------------|
|-------------------------------------------|
|-----------------10--------------10-10-----|
|----------9-10---------8----8----------8---|
|--8----------------------------------------|


   S  S S  S  S  S S  S  S        E     S  S
|----17---17-17-15---13-12---------------------|
|-12-----------------------------13------------|
|--------------------------------------14-12---|
|----------------------------------------------|
|----------------------------------------------|
|----------------------------------------------|
|
|  S  S S  S  S  S S  S  S  S  S  S  S  S
|----------------------------------------------|
|----18---18-18-17---15-13---------------------|
|--------------------------14------------------|
|-17-----------------------------15-14---------|
|----------------------------------------------|
|----------------------------------------------|
|
|  S  E    S  S  S S  S  S  S  S  S  S  S  S S
|----------------------------------------------|
|----------------------------------------------|
|----------------------------------------------|
|------------------9----------------10-10------|
|----------8-10---------10----10----------10---|
|-10-------------------------------------------|


   S  S S  S  E    S S  S  S S  S  S  S E
|-12----------------------13---13-----------|
|----13-------------------------------------|
|---------12------13---14---------14--------|
|-------------------------------------------|
|-------------------------------------------|
|-------------------------------------------|
|
|  S  S S  S  E    S S  S  S S  S  S  S E
|-------------------------------------------|
|-13----------------------13---13-----------|
|----14-------------------------------------|
|---------14------14---15---------15--------|
|-------------------------------------------|
|-------------------------------------------|
|
|  S  E    S  S S  S S  S  S S  S  S  S S S
|-------------------------------------------|
|-------------------------------------------|
|-------------------------------------------|
|-----------------10--------------10-10-----|
|----------9-10---------8----8----------8---|
|--8----------------------------------------|


   S  S S  S  S  S S  S  S  S  E
|----13---13-13-12-------------------------|
|-12-----------------15-13-----------------|
|--------------------------12--------------|
|------------------------------------------|
|------------------------------------------|
|------------------------------------------|
|
|  S  S S  S  S  S S  S  S  S  S  S  S S E
|------------------------------------------|
|----15---15-15-13---12--------------------|
|-----------------------12-----------------|
|-17-----------------------14----14--------|
|-----------------------------------15-----|
|------------------------------------------|
|
|  S  S S  S  S  S S  S  S  S  S  S  S S E
|------------------------------------------|
|------------------------------------------|
|------------------------------------------|
|------------------------------------------|
|-10-10---10-10-12---14-15-----------3-----|
|-----------------------------15-----------|


   S  S S  S E    S S  S  S S  S  S S E
|-12---------------------13---13----------|
|----13-----------------------------------|
|---------12-----13---14---------14-------|
|-----------------------------------------|
|-----------------------------------------|
|-----------------------------------------|
|
|  S  S S  S E    S S  S  S S  S  S S E
|-----------------------------------------|
|-13---------------------13---13----------|
|----14-----------------------------------|
|---------14-----14---15---------15-------|
|-----------------------------------------|
|-----------------------------------------|
|
|  S  E    S S S  S S  S  S S  S  S S S S
|-----------------------------------------|
|---------------------------------1-1-----|
|-----------------5-----------------------|
|----------4-5---------3----3---------3---|
|--3--------------------------------------|
|-----------------------------------------|


   S  S S  S  S  S S  S  S  S S  S  S S E
|----17---17-17-15---13-12------------------|
|-12-----------------------13---------------|
|-------------------------------14-12-------|
|-------------------------------------------|
|-------------------------------------------|
|-------------------------------------------|
|
|  S  S S  S  S  S S  S  S  S S  S  S S E
|-------------------------------------------|
|----18---18-18-17---15-13------------------|
|--------------------------14---------------|
|-17----------------------------15-14-------|
|-------------------------------------------|
|-------------------------------------------|
|
|  S  E    S  S  S S  S  S  S S  S  S S S S
|-------------------------------------------|
|-------------------------------------------|
|------------------4----------------5-5-----|
|----------3--5----------5----5---------5---|
|--5----------------------------------------|
|-------------------------------------------|


   S  S S  S E    S S  S  S S  S  S S E
|-12---------------------13---13----------|
|----13-----------------------------------|
|---------12-----13---14---------14-------|
|-----------------------------------------|
|-----------------------------------------|
|-----------------------------------------|
|
|  S  S S  S E    S S  S  S S  S  S S E
|-----------------------------------------|
|-13---------------------13---13----------|
|----14-----------------------------------|
|---------14-----14---15---------15-------|
|-----------------------------------------|
|-----------------------------------------|
|
|  S  E    S S S  S S  S  S S  S  S S S S
|-----------------------------------------|
|---------------------------------1-1-----|
|-----------------5-----------------------|
|----------4-5---------3----3---------3---|
|--3--------------------------------------|
|-----------------------------------------|


   S  S S  S  S  S S  S  S  S  E     Q
|----13---13-13-12-------------------------|
|-12-----------------15-13-----------------|
|------------------------------------------|
|------------------------------------------|
|------------------------------------------|
|------------------------------------------|
|
|  S  S S  S  S  S S  S  S  S  S  S  S S E
|------------------------------------------|
|----15---15-15-13---12--------------------|
|-----------------------12-----------------|
|-17-----------------------14----14--------|
|-----------------------------------15-----|
|------------------------------------------|
|
|  S  S S  S  S  S S  S  S  S  S  S  S S E
|------------------------------------------|
|------------------------------------------|
|------------------------------------------|
|--5--5----5--5--7----9-10-----------------|
|-----------------------------10-----------|
|------------------------------------8-----|


   S  S S  S S  S  S S  S  S S  S  S S E
|----------------------12------------------|
|-13-13---13---13-15------13---------------|
|------------------------------14-12-------|
|------------------------------------------|
|------------------------------------------|
|------------------------------------------|
|
|  S  S S  S S  S  S S  S  S S  S  S S E
|------------------------------------------|
|-----------------11-----------------------|
|-13-13---13---13------12------------------|
|-------------------------14---14----------|
|---------------------------------15-------|
|------------------------------------------|
|
|  S  E    S E     S S  S  E    S  E   S S
|------------------------------------------|
|------------------------------------------|
|------------------------------------------|
|------------------6----5------------------|
|----------6--------------------3----------|
|--4-----------------------------------3---|


   S  S S  S S  S  S  S H
|--------------------12-------------|
|-13-13---13---13-15----------------|
|-----------------------------------|
|-----------------------------------|
|-----------------------------------|
|-----------------------------------|
|
|  S  S S  S S  S  S  S H
|-----------------------------------|
|-----------------11----------------|
|-13-13---13---13----12-------------|
|-----------------------------------|
|-----------------------------------|
|-----------------------------------|
|
|  S  E    S E     S  S S E S E S S
|-----------------------------------|
|-----------------------------------|
|-----------------------------------|
|------------------6----5-----------|
|----------6----------------3-------|
|--4----------------------------3---|


   S  S S  S S  S  S S  S  S S  S  S S E
|----------------------12-------------------|
|-13-13---13---13-15------13----------------|
|------------------------------14-12--------|
|-------------------------------------------|
|-------------------------------------------|
|-------------------------------------------|
|
|  S  S S  S S  S  S S  S  S S  S  S S E
|-------------------------------------------|
|-----------------11------------------------|
|-13-13---13---13------12-------------------|
|-------------------------14---14-----------|
|---------------------------------15--------|
|-------------------------------------------|
|
|  S  E    S E     S S  S  E    S  E   S S
|-------------------------------------------|
|-------------------------------------------|
|-------------------------------------------|
|------------------6----5-------------------|
|----------6--------------------3-----------|
|--4-----------------------------------3----|


   S  S S  S S  S  S S  S S E  Q
|-12-12---12------12---15------------|
|--------------13--------------------|
|------------------------------------|
|------------------------------------|
|------------------------------------|
|------------------------------------|
|
|  S  S S  S S  S  S S  S S E  S S E
|------------------------------------|
|------------------------------------|
|----------------------16------------|
|-16-16---16---16-16----------17-----|
|------------------------------------|
|------------------------------------|
|
|  S  S S  S S  S  S S  S S E  S S E
|-----------------------3------------|
|------------------------------------|
|------------------------------------|
|------------------------------5-----|
|--5--5----5----5--5-----------------|
|------------------------------------|


   S  S S  S E    S S  S  S S  S  S S E
|-12---------------------13---13-----------|
|----13------------------------------------|
|---------12-----13---14---------14--------|
|------------------------------------------|
|------------------------------------------|
|------------------------------------------|
|
|  S  S S  S E    S S  S  S S  S  S S E
|------------------------------------------|
|------------------------------------------|
|-17---------------------------------------|
|----19------------------22---22-----------|
|---------19-----19---20---------20--------|
|------------------------------------------|
|
|  S  E    S S S  S S  S  S S  S  S S S S
|------------------------------------------|
|---------------------------------1-1------|
|-----------------5------------------------|
|----------4-5---------3----3---------3----|
|--3---------------------------------------|
|------------------------------------------|


   S  S S  S  S  S S  S  S  S S  S  S S E
|----17---17-17-15---13-12------------------|
|-12-----------------------13---------------|
|-------------------------------14-12-------|
|-------------------------------------------|
|-------------------------------------------|
|-------------------------------------------|
|
|  S  S S  S  S  S S  S  S  S S  S  S S E
|-------------------------------------------|
|-------------------------------------------|
|----22---22-22-21---19-17------------------|
|--------------------------19---------------|
|-22----------------------------20-19-------|
|-------------------------------------------|
|
|  S  E    S  S  S S  S  S  S S  S  S S S S
|-------------------------------------------|
|-------------------------------------------|
|------------------4----------------5-5-----|
|----------3--5----------5----5---------5---|
|--5----------------------------------------|
|-------------------------------------------|


   S  S S  S E    S S  S  S S  S  S S E
|-12---------------------13---13----------|
|----13-----------------------------------|
|---------12-----13---14---------14-------|
|-----------------------------------------|
|-----------------------------------------|
|-----------------------------------------|
|
|  S  S S  S E    S S  S  S S  S  S S E
|-----------------------------------------|
|-----------------------------------------|
|-17--------------------------------------|
|----19------------------22---22----------|
|---------19-----19---20---------20-------|
|-----------------------------------------|
|
|  S  E    S S S  S S  S  S S  S  S S S S
|-----------------------------------------|
|---------------------------------1-1-----|
|-----------------5-----------------------|
|----------4-5---------3----3---------3---|
|--3--------------------------------------|
|-----------------------------------------|


   S  S S  S  S  S S  S  S  S  E    Q
|----13---13-13-12------------------------*|
|-12-----------------15-13----------------*|
|-----------------------------------------*|
|-----------------------------------------*|
|-----------------------------------------*|
|-----------------------------------------*|
|
|  S  S S  S  S  S S  S  S  S  S  S S S E
|-----------------------------------------*|
|-----------------------------------1-----*|
|-----------------------------------------*|
|----24---24-24-22---21-------------------*|
|-22--------------------22----------------*|
|--------------------------24----24-------*|
|
|  S  S S  S  S  S S  S  S  S  S  S S S E
|-----------------------------------------*|
|-----------------------------------------*|
|-----------------------------------------*|
|--5--5----5--5--7----9-10----------------*|
|-----------------------------10----------*|
|-----------------------------------8-----*|
Login or Register to remove this ad.

6 comments on Overworld (Main Theme)

I actually only really done

I actually only really done the lead part and i forgot to change guitar one to lead..bah. The rest was what the program put there.

Incredible.....

Incredible.....

Excellent. The only problem

Excellent. The only problem I have with it is that it's an octave up, but still, great work.

yeah i did it higher because

yeah i did it higher because i thought it sounded pretty cool =]

So far down the neck it

1

So far down the neck it causes muscle strain, and/or death!
PLAY THIS NOW!

Electric guitars are made to let you play the entire fretboard.

There is nothing especially wrong with playing in the first 5 frets all the time, but are you aware that if you have proper technique, it is physically more difficult the closer to the first fret you are? Barring, intonation, reach are all more difficult at the first fret, and it takes more energy for you to reach to first position.

I avoid tabbing up to fret 24 like this because not all electrics have 24 frets--mine doesn't--but it shouldn't cause muscle strain. That's a sign of improper technique, not poor tabbing.