Ads

Overworld (Super Mario Brothers) Bass Tab

Submitted: Mar 29, 2008 by goldsac (Last updated: Oct 07, 2009)

3.2
Average: 3.2 (5 votes)
Download | Listen
Game: Super Mario Brothers
Composer(s): Koji Kondo
Style: Transcription
Series: Mario

AutoScroll: Slow | Medium | Fast
Title:     Overworld
Game:      Super MArio Bros.
Composer:  Koji Kondo
Year:      1985
Tabber:    goldsac
Notes:

5 strings; Standard tuning (BEADG)

      - play closer to the bridge for this one to 
        replicate the round tone on the track

4/4 Time
    
_______________________________________________________________________________

Blippy   bpm=100


Section A

      S  S S  E   S  S S  E  E  E  E      S E  S E  S E  S S  E  S E   
G||----------------------12-----------|-------------------------------|
D||-----------------------------------|-------------------------------|
A||-----------------------------------|--10----7---------8---10--9-8--|
E||--10-10---10--10-10----------------|-------------8-----------------|
B||-----------------------------8-----|-------------------------------|


  |---3--|                                                            
  E   E  E   E  S S S  S S S S  E  S     S E  S E  S E  S S  E  S E   
---------9--10--7-9------------------|-------------------------------|
-----10---------------10---7-9-------|-------------------------------|
--7----------------------------10----|--10----7---------8---10--9-8--|
-------------------------------------|-------------8-----------------|
-------------------------------------|-------------------------------|

                                        
                                        Section B                           
  |---3--|                             
  E   E  E   E  S S S  S S S S  E  S     E.   E.   E  E  S  S  S  S E   
---------9--10--7-9------------------||--------------------------------|
-----10---------------10---7-9-------||-----------10-------10-10-10----|
--7----------------------------10----||------10-------8-------------8--|
-------------------------------------||--8-----------------------------|
-------------------------------------||--------------------------------|


  E.  E.   S  S Q.      E     E.   E.   E  E  S  S  S  S E   
---------------------------|--------------------------------|
-------------10------------|-----------10-------10-10-10----|
------7---10-----------10--|------10-------8-------------8--|
--8------------------------|--8-----------------------------|
---------------------------|--------------------------------|


  S S  E.  E.   E.   S  E  E     E.   E.   E  E  S  S  S  S E   
------------------------------|--------------------------------|
-----------8---10-------------|-----------10-------10-10-10----|
------11------------10-10-----|------10-------8-------------8--|
--8------------------------8--|--8-----------------------------|
------------------------------|--------------------------------|


  E.  E.   S  S Q.      E     E.   E.   E  E  S  S  S  S E   
---------------------------|--------------------------------|
-------------10------------|-----------10-------10-10-10----|
------7---10-----------10--|------10-------8-------------8--|
--8------------------------|--8-----------------------------|
---------------------------|--------------------------------|


                                 Section C

  S S  E.  E.   E.   S  E  E      E  S E  S E  E  S E  S E   
------------------------------||----------------------------|
-----------8---10-------------||------------6--5------------|
------11------------10-10-----||-------6------------3-------|
--8------------------------8--||--4----------------------3--|
------------------------------||----------------------------|


  E  S E  S E  E  S E  S E     E  S E  S E  E  S E  S E   
----------------------------|----------------------------|
------------6--5------------|------------6--5------------|
-------6------------3-------|-------6------------3-------|
--4----------------------3--|--4----------------------3--|
----------------------------|----------------------------|


                                      Section A

   S  S S  E   S  S S  E  E  E  E      S E  S E  S E  S S  E  S E   
----------------------12-----------||-------------------------------|
-----------------------------------||-------------------------------|
-----------------------------------||--10----7---------8---10--9-8--|
--10-10---10--10-10----------------||-------------8-----------------|
-----------------------------8-----||-------------------------------|


  |---3--|                                                            
  E   E  E   E  S S S  S S S S  E  S     S E  S E  S E  S S  E  S E   
---------9--10--7-9------------------|-------------------------------|
-----10---------------10---7-9-------|-------------------------------|
--7----------------------------10----|--10----7---------8---10--9-8--|
-------------------------------------|-------------8-----------------|
-------------------------------------|-------------------------------|

                                          
                                        Section D
  |---3--|                                                               
  E   E  E   E  S S S  S S S S  E  S    E  S S  S S  S S E  E   S  S E   
---------9--10--7-9------------------||----------------------------------|
-----10---------------10---7-9-------||--------------10---------10-10----|
--7----------------------------10----||-------9-10--------8--8--------8--|
-------------------------------------||--8-------------------------------|
-------------------------------------||----------------------------------|


   E  S S  S S S S  E   E   S  S  E     E  S S  S S  S S E  E   S  S E   
-------------------------------------|----------------------------------|
---------------9-----------10-10-----|--------------10---------10-10----|
--------8-10-------10--10--------10--|-------9-10--------8--8--------8--|
--10---------------------------------|--8-------------------------------|
-------------------------------------|----------------------------------|


            |---3--|                                                   
   E  S  S  E   E  E   E   E  Q       E  S S  S S  S S E  E   S  S E   
-----------------------------------|----------------------------------|
-------------------9--10-----------|--------------10---------10-10----|
--10----10-10--12---------10-------|-------9-10--------8--8--------8--|
------------------------------8----|--8-------------------------------|
-----------------------------------|----------------------------------|


   E  S S  S S S S  E   E   S  S  E     E  S S  S S  S S E  E   S  S E   
-------------------------------------|----------------------------------|
---------------9-----------10-10-----|--------------10---------10-10----|
--------8-10-------10--10--------10--|-------9-10--------8--8--------8--|
--10---------------------------------|--8-------------------------------|
-------------------------------------|----------------------------------|


                                      Section C 
           |---3--|                                             
   E  S  S  E   E  E   E   E  Q        E  S E  S E  E  S E  S E   
-----------------------------------||----------------------------|
-------------------9--10-----------||------------6--5------------|
--10----10-10--12---------10-------||-------6------------3-------|
------------------------------8----||--4----------------------3--|
-----------------------------------||----------------------------|


  E  S E  S E  E  S E  S E     E  S E  S E  E  S E  S E   
----------------------------|----------------------------|
------------6--5------------|------------6--5------------|
-------6------------3-------|-------6------------3-------|
--4----------------------3--|--4----------------------3--|
----------------------------|----------------------------|


                                      Section D

   S  S S  E   S  S S  E  E  E  E     E  S S  S S  S S E  E   S  S E   
----------------------12-----------||----------------------------------|
-----------------------------------||--------------10---------10-10----|
-----------------------------------||-------9-10--------8--8--------8--|
--10-10---10--10-10----------------||--8-------------------------------|
-----------------------------8-----||----------------------------------|


   E  S S  S S S S  E   E   S  S  E     E  S S  S S  S S E  E   S  S E   
-------------------------------------|----------------------------------|
---------------9-----------10-10-----|--------------10---------10-10----|
--------8-10-------10--10--------10--|-------9-10--------8--8--------8--|
--10---------------------------------|--8-------------------------------|
-------------------------------------|----------------------------------|


            |---3--|                 
   E  S  S  E   E  E   E   E  Q      
-----------------------------------||
-------------------9--10-----------||
--10----10-10--12---------10-------||
------------------------------8----||
-----------------------------------||




Duration Legend
---------------
Q - quarter
E - 8th
S - 16th
. - note dotted
|-n-|  - n-tuplets
L - tied note
Login or Register to remove this ad.

2 comments on Overworld

This isn't bad. It's easy to

2

This isn't bad. It's easy to play, but from what I tested, some of it is pretty inaccurate. For example:

|-----------10-------10-10-10----|
|------10-------8-------------8--|
|--8-----------------------------|
|--------------------------------|

Should be:
|-----------10-------10-10-----|
|------10-------8-----------8--|
|--8---------------------------|
|------------------------------|

I can't be bothered noting anything else. My latest tab isn't up yet, but check it out when it is - I removed the necessary sound channels to listen to each note individually, so it's completely accurate.
Just take look at it when it's up so that you can correct any mistake. This tab of yours does have potential.

Really?

You might wanna check again ;)
There is undoubtably a third C note in there, try checking at slow speed - you don't even have to isolate channels to hear it. Not to be arrogant, but I do stand behind my work and I have no idea how you could ever justify giving this tab a 2/5. Enlighten me.. i encourage you!