Overworld (Super Mario Brothers 2) Guitar Tab

Submitted: Sep 30, 2007 by Calebelijah (Last updated: Sep 20, 2009)

4.615385
Average: 4.6 (26 votes)
Download | Listen
Game: Super Mario Brothers 2
Composer(s): Koji Kondo
Style: 2 or more instruments, Transcription
Series: Mario

Click here for a video example.

AutoScroll: Slow | Medium | Fast

Guitar 1

Lead Guitar
     E  S S S S S S S S S S    S E  S E  Q    E     E  S E  E.  S E  S
E||-----3-2---1-------------|-------3------------|---------------------|
B||-------------3---0-------|--------------------|--8----5--8-----5--8-|
G||-------------------2---1-|--0---------0-------|-----5--------5------|
D||-------------------------|--------------------|---------------------|
A||-------------------------|--------------------|---------------------|
E||-------------------------|--------------------|---------------------|

  S S S E  Q.     S    E  S E  E.  S E  S    S S S E  Q.     S
--------7--5------L-|--3-------3--------3-|------3-7--5------7-|
----4-7-------------|-------3--------3----|----5---------------|
--4-----------------|-----3--------3------|--6-----------------|
--------------------|---------------------|--------------------|
--------------------|---------------------|--------------------|
--------------------|---------------------|--------------------|

  E  S E  E.  S E  S    E  S E  E.  S E  S    E  S E  E.  S E  S
--8--7-8--5---8-7--5-|---------------------|---------------------|
---------------------|--8--7-8--5--------5-|--6--5-6------5------|
---------------------|--------------6-7----|----------4-----7--5-|
---------------------|---------------------|---------------------|
---------------------|---------------------|---------------------|
---------------------|---------------------|---------------------|

  H.              E  S E.  S E  S S S    Q    E  S S S S S S
---------------|----------------5---8-|--L-------5-----------|
---------------|-----5-----8----------|--------------8-5-----|
--L------------|----------------------|--------------------5-|
---------------|----------------------|----------------------|
---------------|----------------------|----------------------|
---------------|----------------------|----------------------|

                               T    T    T    T    T    T    T    T
  S S S S S S S S S E  S    S  T T  T T  T T  T T  T T  T T  T T  T T E  S
-------------------------|-------------------------------------------------|
------5-----5------------|-------------------------------------------------|
--7-----7-----7--------7-|-----------------------------------------------7-|
------------------7------|----12-7-12-7-12-7-12-7-12-7-12-7-12-7-12-7------|
-------------------------|-------------------------------------------------|
-------------------------|-------------------------------------------------|

  E  S S S S S S S E  S    E  S S S S S S S S S S
----------------------5-|-------5-----------------|
-----5-----5-----5------|-----8-----8-5---------5-|
-------7-----7----------|-----------------7-5-----|
------------------------|-------------------------|
------------------------|-------------------------|
------------------------|-------------------------|

      T   T   T   T   T   T   T   T
  S T T T T T T T T T T T T T T T T E.     E  S S S S S S S S S S
----------------------------------------|-----3-------------------|
----------------------------------------|---------4---0-----------|
----5-9-5-9-5-9-5-9-5-9-5-9-5-9-5-9-----|-----------------2---0---|
----------------------------------------|-------------------------|
----------------------------------------|-------------------------|
----------------------------------------|-------------------------|

  E  S E.  S E  S S S    Q    E  S S S S S S    S S S S S S S S S E  S
----------------5---8-|--L-------5-----------|-------------------------|
-----5-----8----------|--------------8-5-----|------5-----5------------|
----------------------|--------------------5-|--7-----7-----7--------7-|
----------------------|----------------------|------------------7------|
----------------------|----------------------|-------------------------|
----------------------|----------------------|-------------------------|

     T    T    T    T    T    T    T    T
  S  T T  T T  T T  T T  T T  T T  T T  T T E  S    E  S S S S S S S E  S
-------------------------------------------------|----------------------5-|
-------------------------------------------------|-----5-----5-----5------|
-----------------------------------------------7-|-------7-----7----------|
----12-7-12-7-12-7-12-7-12-7-12-7-12-7-12-7------|------------------------|
-------------------------------------------------|------------------------|
-------------------------------------------------|------------------------|

  E  S S S S S S S S S S    Q    S S S S S S S S    Q    S S Q    S S
-------5-----5-----------|-----------------------|--------------------|
-----8-----8-----8-5-----|-----------------------|------------------5-|
-----------------------5-|-----------------4---5-|---------5----------|
-------------------------|---------4-5---7-------|--------------------|
-------------------------|-----------------------|--------------------|
-------------------------|-----------------------|--------------------|

  E  S S S S S S S S S S    S E  E  S E  S E.     S S S S S S S S S S S S
-----------------------7-|--L----4-------------|--------------------------|
-----6-4---5-6---4-5-----|------------6----5---|--3-5-3-------3-----------|
-------------------------|---------------------|--------4---5-----5-4---5-|
-------------------------|---------------------|--------------------------|
-------------------------|---------------------|--------------------------|
-------------------------|---------------------|--------------------------|

  S Q    S S E  S E     E  S E.  S E  S S S    S E  S E  S E  S E
---------------------|--------------------5-|--L----2----3----5----|
---------------------|-----3-----2----3-----|----------------------|
--L------5-4----5----|----------------------|----------------------|
---------------------|----------------------|----------------------|
---------------------|----------------------|----------------------|
---------------------|----------------------|----------------------|

  S S S S S S S S S S S S    S S S S S S S S S S S S    E  S E  E.  S E  S
--7---------7-5---------5-|--4---------4-3-----------|---------------------|
--------------------------|------------------3-------|--8----5--8-----5--8-|
--------------------------|--------------------4-----|-----5--------5------|
------8-9---------6-7-----|------5-6---------------5-|---------------------|
--------------------------|--------------------------|---------------------|
--------------------------|--------------------------|---------------------|

  S S S E  Q.     S    E  S E  E.  S E  S    S S S E  Q.     S
--------7--5------L-|--3-------3--------3-|------3-7--5------7-|
----4-7-------------|-------3--------3----|----5---------------|
--4-----------------|-----3--------3------|--6-----------------|
--------------------|---------------------|--------------------|
--------------------|---------------------|--------------------|
--------------------|---------------------|--------------------|

  E  S E  E.  S E  S    E  S E  E.  S E  S    E  S E  E.  S E  S
--8--7-8--5---8-7--5-|---------------------|---------------------|
---------------------|--8--7-8--5--------5-|--6--5-6------5------|
---------------------|--------------6-7----|----------4-----7--5-|
---------------------|---------------------|---------------------|
---------------------|---------------------|---------------------|
---------------------|---------------------|---------------------|

  E.  E  S S Q    S
-----------8--------||
------8-------------||
--L-----------------||
--------------------||
--------------------||
--------------------||

Duration Legend
---------------
W - whole
H - half
Q - quarter
E - 8th
S - 16th
T - 32nd
X - 64th
. - note dotted
|-n-|  - n-tuplets

Tablature Legend
----------------
L - tied note
T - tapping

Guitar 2

Rhythm Guitar
     E  S S S S S S S S S S    S E  S E  S E  S E     Q.     Q.
E||-------------------------|-----------------3----|--3------3------|
B||-----5-4---3-0-----------|-------3--------------|--5------5------|
G||-----------------0-------|----------------------|--5------5------|
D||-------------------3---2-|--0---------0---------|----------------|
A||-------------------------|----------------------|----------------|
E||-------------------------|----------------------|----------------|

  Q.     Q.        Q.     Q.        Q.     Q.        Q.     Q.
--3------3------|--3------3------|--3------3------|--1------2------|
--4------4------|--3------3------|--2------2------|--1------1------|
--4------4------|--3------3------|--2------2------|--2------2------|
----------------|----------------|----------------|----------------|
----------------|----------------|----------------|----------------|
----------------|----------------|----------------|----------------|

  Q.     Q.        Q.     Q.        H.              E.  S Q    S S E
--3------5------|--1-------------|---------------|------3--------3----|
--3------5------|--1------3------|--1------------|------5--------5----|
--4------6------|--2------4------|--0------------|------5--------5----|
----------------|---------5------|--2------------|--------------------|
----------------|----------------|--3------------|--------------------|
----------------|----------------|---------------|--------------------|

  E.  S Q    S S E     E.  S Q    S S E     E.  S Q    S S E
------3--------3----|------2--------2----|------2--------2----|
------5--------5----|------3--------3----|------3--------3----|
------5--------5----|------2--------2----|------2--------2----|
--------------------|--------------------|--------------------|
--------------------|--------------------|--------------------|
--------------------|--------------------|--------------------|

  E.  S Q    S S E     E.  S Q    S S E     E.  S Q    S S E
------1--------1----|------1--------1----|------0--------0----|
------3--------3----|------3--------3----|------1--------1----|
------4--------4----|------4--------4----|------0--------0----|
--------------------|--------------------|--------------------|
--------------------|--------------------|--------------------|
--------------------|--------------------|--------------------|

  E.  S Q    S S E     E.  S Q    S S E     E.  S Q    S S E
------3--------3----|------3--------3----|------3--------3----|
------4--------4----|------5--------5----|------5--------5----|
------4--------4----|------5--------5----|------5--------5----|
--------------------|--------------------|--------------------|
--------------------|--------------------|--------------------|
--------------------|--------------------|--------------------|

  E.  S Q    S S E     E.  S Q    S S E     E.  S Q    S S E
------2--------2----|------2--------2----|------1--------1----|
------3--------3----|------3--------3----|------3--------3----|
------2--------2----|------2--------2----|------4--------4----|
--------------------|--------------------|--------------------|
--------------------|--------------------|--------------------|
--------------------|--------------------|--------------------|

  E.  S Q    S S E     E.  S Q    S S E     E.  S Q    S S E
------1--------1----|------0--------0----|------0--------0----|
------3--------3----|------1--------1----|------1--------1----|
------4--------4----|------0--------0----|------0--------0----|
--------------------|--------------------|--------------------|
--------------------|--------------------|--------------------|
--------------------|--------------------|--------------------|

  Q    E  Q    E     Q    E  Q    E     Q    E  Q    E     Q    E  Q    E
--7-------7-------|--7-------7-------|--5-------5-------|--5-------5-------|
--9-------9-------|--9-------9-------|--5-------5-------|--5-------5-------|
--9-------9-------|--9-------9-------|--5-------5-------|--5-------5-------|
------------------|------------------|------------------|------------------|
------------------|------------------|------------------|------------------|
------------------|------------------|------------------|------------------|

  Q    E  Q    E     Q    E  Q    E      Q    E   Q    E     Q    E  Q    E
--5-------5-------|--5-------5-------|---7--------7-------|--1-------3-------|
--7-------7-------|--7-------7-------|---8--------8-------|--3-------6-------|
--7-------7-------|--7-------7-------|--10-------10-------|--0-------4-------|
------------------|------------------|--------------------|------------------|
------------------|------------------|--------------------|------------------|
------------------|------------------|--------------------|------------------|

  Q.     Q.        Q.     Q.        Q.     Q.        Q.     Q.
--3------3------|--3------3------|--3------3------|--3------3------|
--5------5------|--4------4------|--3------3------|--2------2------|
--5------5------|--4------4------|--3------3------|--2------2------|
----------------|----------------|----------------|----------------|
----------------|----------------|----------------|----------------|
----------------|----------------|----------------|----------------|

  Q.     Q.        Q.     Q.        Q.     Q.        Q.     S Q    S
--1------2------|--3------5------|--1-------------|------------------||
--1------1------|--3------5------|--1------3------|--1------L--------||
--2------2------|--4------6------|--2------4------|--0------L--------||
----------------|----------------|---------5------|--2------L--------||
----------------|----------------|----------------|--3---------------||
----------------|----------------|----------------|------------------||

Duration Legend
---------------
W - whole
H - half
Q - quarter
E - 8th
S - 16th
T - 32nd
X - 64th
. - note dotted
|-n-|  - n-tuplets
Login or Register to remove this ad.

18 comments on Overworld

Dude Great Job Keep it up.

Dude Great Job Keep it up. I'll keep any tabs by you bookmarked, They're perfect!!!!

hey man dude you did a very

hey man dude you did a very good job with this i hope i do more. Man i love this song thank you for taking the time to tab it out. I appreciate the dedication you are taking on video games as a fellow guitarist i commend you well you know my e-mail send me a message so we can talk and stuff.

for real, you don't often

for real, you don't often see tabs that are so precisely accurate that you have not an approximation of the song, but the exact song itself. job well done!

Yeah CalebElijah is a

Yeah CalebElijah is a machine.

I'm slightly confused on the

I'm slightly confused on the tremolo picking parts. Anyone want to explain exactly what to do?

Archard i think you just

Archard i think you just gotta keep a steady tempo i dont really tap it coz ive got big hands so i just hammer and pull off but find whats good for you

best tab for this song ive

best tab for this song ive ever seen
thank you

good, but what does L mean?

5

good, but what does L mean?

L means "Hold". So an L

5

L means "Hold".
So an L after a 8 would mean that you need to hold the 8.

flawless!

5

flawless!

Nice, but did you try to play it?

4

It is very well done, but most likely ripped off a MIDI.
Have you tried playing it before uploading it?

---------------------------------------
---------------------------------------
---------------------------------------
12-7-12-7-12-7-12-7-12-7-12-7-12-7-12-7
---------------------------------------
---------------------------------------

If anyone even tried to play it, they'll notice that it is way more simple to do

---------------------------------------
---------------------------------------
7---7---7---7---7---7---7---7---7---7--
--7---7---7---7---7---7---7---7---7---7
---------------------------------------
---------------------------------------

I give 4 stars out of 5 because of those "not humanly possible" lines. But otherwise, it is complete.

eh

I'd say it' not his job to plot the fingerings it for you. Figure that stuff out yourself. Tabs should be treated as guidelines, everyone has a different style.

you sure?

maybe if you know what your doing, but a new guy like me who has never played a guitar before has no idea what hes even doing and just hoping these tabs will teach me how to play these songs

uhm

actually, 12-7 etc is not really otherworldy, if it were 12-5 ok, that would be pretty much impossible. and you get a different sound if you pluck this on two strings, the notes will sound "disconnected"

Long reaches

2

there are some long reaches in some parts and it's annoying. try and see if you can fix that

guitar pro file missing (?)

it sounds so good..
why there is no guitar pro file?
it would be perfect then!

Lead Guitar E S S S S S

Lead Guitar
     E  S S S S S S S S S S    S E  S E  Q    E     E  S E  E.  S E  S
E||-----3-2---1-------------|-------3------------|---------------------|
B||-------------3---0-------|--------------------|--8-------8--------8-|
G||-------------------2---1-|--0---------0-------|-------9--------9----|
D||-------------------------|--------------------|-----10-------10-----|
A||-------------------------|--------------------|---------------------|
E||-------------------------|--------------------|---------------------|

  S S S E  Q.     S    E  S E  E.  S E  S    S S S E  Q.     S
E||--------7---------L-|--3-------3--------3-|------3-7--5------7-|
B||------7----7--------|-------3--------3----|----5---------------|
G||----8---------------|-----3--------3------|--6-----------------|
D||--9-----------------|---------------------|--------------------|
A||--------------------|---------------------|--------------------|
E||--------------------|---------------------|--------------------|

I do the part after the intro like this it seems easier.

Actually this part sounds better like this but it's kind of harder

S S S E Q. S E S E E. S E S S S S E Q. S
E||--------7---------L-|--3-------3--------3-|------3-7--5------7-|
B||------8----7--------|-------3--------3----|----5---------------|
G||----8---------------|-----3--------3------|--6-----------------|
D||--9-----------------|---------------------|--------------------|
A||--------------------|---------------------|--------------------|
E||--------------------|---------------------|--------------------|

Thanks dude

Probably not seeing this
But I modified the tabs so that you can keep similar shapes throughout the song and not Chavez to do as much work, couldn’t have done it without you