Ads

Flameman's Stage (Mega Man 6) Guitar Tab

Submitted: Dec 15, 2007 by Zero

5
Average: 5 (1 vote)
Download | Listen
Game: Mega Man 6
Composer(s): Yuko Kadota
Style: Transcription
Series: Mega Man

AutoScroll: Slow | Medium | Fast
Mega Man 6
 Flame Man Stage


e---------------6h8-6---------------------6-8--------------]
b-------9---7-9-------9-7---------------7------------------]
g---5-8---8---------------8-6-----6-8-6--------------------]
d-6---------------------------9-9--------------------------]
a----------------------------------------------------------]
e----------------------------------------------------------]



e-11-9-8---------------------------------------------------]
b--------11-9----------------------------------------------]
g-------------11----8--------------------------------------]
d----------------11---11-----------------------------------]
a----------------------------------------------------------]
e----------------------------------------------------------]



e-------6h8-6----------------------------------------------]
b---7-9-------9-7------------------------------------------]
g-8---------------8-6p5-6p5-6h7-8----5---------------------]
d--------------------------------------6-------------------]
a----------------------------------------6-----------------]
e----------------------------------------------------------]



e-------6h8-6----------------------------------------------]
b---7-9-------9-7------------------------------------------]
g-8---------------8-6p5-6p5-6h7-8--------------------------]
d----------------------------------------------------------]
a----------------------------------------------------------]
e----------------------------------------------------------]




e----------8--------------------6--------------------------]
b-9---9-11---11-9-------7---7-9---9-7----------------------]
g---8---------------------6--------------------------------]
d----------------------------------------------------------]
a----------------------------------------------------------]
e----------------------------------------------------------]



e----------8-------11-9-8-6h8p6----------------------------]
b-9---9-11---11-9---------------9--------------------------]
g---8------------------------------------------------------]
d----------------------------------------------------------]
a----------------------------------------------------------]
e----------------------------------------------------------]



e----------8--------------------6--------------------------]
b-9---9-11---11-9-------7---7-9---9-7----------------------]
g---8---------------------6--------------------------------]
d----------------------------------------------------------]
a----------------------------------------------------------]
e----------------------------------------------------------]



e----------------------6-7-9-------------------------------]
b------7-9-7h9p7---7-9-------------------------------------]
g-9--9-----------9-----------------------------------------]
d----------------------------------------------------------]
a----------------------------------------------------------]
e----------------------------------------------------------]



e----------------------------------------------------------]
b-16-14h16p14----------14-16--16-17-19-17-16-14----14-16---]
g-------------16-15-16--------------------------16---------]
d----------------------------------------------------------]
a----------------------------------------------------------]
e----------------------------------------------------------]



e----------------------------------------------------------]
b-16-14h16p14----------14-16-------------------------------]
g-------------16-15-16-------15-13-------------------------]
d----------------------------------16----------------------]
a----------------------------------------------------------]
e----------------------------------------------------------]




e----------------------------------------------------------]
b-16-14h16p14----------14-16--16-17-19-17-16-14----14-16---]
g-------------16-15-16--------------------------16---------]
d----------------------------------------------------------]
a----------------------------------------------------------]
e----------------------------------------------------------]



e--------------------------------------------------16------]
b-16-14h16p14----------14-16-----------------13-16---------]
g-------------16-15-16-------15-13-----13-13---------------]
d----------------------------------16----------------------]
a----------------------------------------------------------]
e----------------------------------------------------------]

repeat
Login or Register to remove this ad.