Ads

Level 1 (Jackal) Bass Tab

Submitted: Apr 12, 2008 by goldsac (Last updated: May 07, 2008)

0
Download | Listen
Game: Jackal
Composer(s): S. Sakamoto, Atsushi Fujio
Style: Transcription

AutoScroll: Slow | Medium | Fast
Title:     Level 1
Game:      Jackal
Composer:  Sakamoto and Fujio
Year:      1988
Tabber:    goldsac
Notes:

5 strings; Standard tuning (BEADG)

- The midi for this tab is horrible. I think the computer has trouble
  with the triplet feel or something. Give it a try if you want a good
  laugh, but stick to the RSE setting in the GP5 file for the real deal.

- This is one of my fav NES tracks ever 
- it matches the atmosphere perfectly IMHO

6/8 Time
______________________________________________________________________________


Bouncin'   bpm=130


     E.   S  S  S  S  S  S  E.     E.   S  S  S  S  S  S  E.   
G||------------------------19---|------------------------19---|
D||---------------------19------|---------------------19------|
A||------17-------17-17---------|------17-------17-17---------|
E||------------17---------------|------------17---------------|
B||---------15------------------|---------15------------------|


   E   S  S S  S  S  S  S  S S  S     S  S  S  S S  S  S  S  S  S S  S  
----------------------------------|------------------------------------|
--17--17-19-----------------------|------------------------------------|
--------------17-17-17-17-17---17-|--17-17-17-17---17-17-17-17-17---17-|
----------------------------------|------------------------------------|
----------------------------------|------------------------------------|

                                   
                                    Intro 2

   S  S  S  E  S  S  S  S  E.      E.  E  S E  S E  S  
-------------------------------||---------------------|
-------------------------------||---------------------|
--17-18-18-19------------------||---------------------|
-----------------17-17-17-17---||---------2-2--2-2--2-|
-------------------------------||---------------------|


  E  S E  S E  S E  S    E  S E  S E  S E  S    E  S E  S E  S E  S  
----------------------|----------------------|----------------------|
----------------------|----------------------|----------------------|
----------------------|----------------------|----------------------|
--2--2-2--2-2--2-2--2-|--2--2-2--2-2--2-2--2-|--2--2-2--2-2--2-2--2-|
----------------------|----------------------|----------------------|


                Section A  

  E  S E  S      E  S E  S    E  S S S S E  S S S S  
------------||-------------|------------------------|
------------||*------------|------------------------|
------------||---2--2-2--2-|--2--2-2---2-2--2-2---2-|
--2--2-2--2-||*------------|---------2----------2---|
------------||-------------|------------------------|


  E  S E  S E  S S S S    S S S S S S E  S E  S    E  S S S S E  S E  S  
-----------------------|------------------------|-----------------------|
-----------------------|------------------------|-----------------------|
--2--2-2--2-2--2-2---2-|--------7-7-7-9--9-9--9-|--9--9-7-7-7-9--9-9--9-|
-------------------2---|--5-0-5-----------------|-----------------------|
-----------------------|------------------------|-----------------------|


               Section B

  E  S S S  S E  S S S S    E  S S S S E  S S S S  
-----------11------------|------------------------|
---------9---------6-----|-------6----------------|
--9--9-9-----------------|-------------7--7-7-7-7-|
--------------4--4---4-4-|--4--4---4-4------------|
-------------------------|------------------------|


  E  S S S S E  S S S S    E  S S S S E  S E  S    E  S E  S E  S S S S  
------------------------|-----------------------|-----------------------|
------------------6-----|-------6---------------|-----------------7-----|
--9--9-9-9-9------------|-------------7--7------|-----------------------|
-------------4--4---4-4-|--4--4---4-4------2--2-|--4--4-6--6-5--5---5-5-|
------------------------|-----------------------|-----------------------|


  E  S S S S E  S S S S    E  S S S S E  S S S S  
------------------------|------------------------|
-------7----------7-----|-------7----------9-----|
------------------------|------------------------|
--5--5---5-5-5--5---5-5-|--5--5---5-5-7--7---7-7-|
------------------------|------------------------|


  E  S S S S E  S S S S    S S S S S S E  S S S S  
------------------------|-------------------------|
-------9----------9-----|-------------------------|
------------------------|-------------------------|
--7--7---7-7-7--7---7-7-|--7-7-7-7-7-7-9--9-9-9-9-|
------------------------|-------------------------|


                                      Section C

  E  S S S S E  S S S S    E  S S S S E  S S S S  
------------------------|------------------------|
------------------------|------------------4-----|
------------------------|------------------------|
--9--9-9-9-9-9--9-9-9-9-|--9--9-9-9-9-2--2---2-2-|
------------------------|------------------------|


  E  S S S S E  S S S S    E  S S S S E  S E  S    E  S E  S E  S E  S  
------------------------|-----------------------|----------------------|
-------4----------4-----|-------4---------------|----------------------|
------------------------|-------------7--7-7--7-|--7--7-7--7-7--7-7--7-|
--2--2---2-2-2--2---2-2-|--2--2---2-2-----------|----------------------|
------------------------|-----------------------|----------------------|


  E  S S S S E  S S S S    E  S S S S E  S S S S  
-----------9------------|------------------------|
-------4-9--------4-----|-------4----------4-----|
--7--7------------------|------------------------|
-------------2--2---2-2-|--2--2---2-2-2--2---2-2-|
------------------------|------------------------|


                                    Section D

  E  S S S S E  S E  S    E  S E  S  E.   E.     E.  E.   E   S  E   S  
-----------------------|----------------------|------------------------|
-------4---------------|----------------------|------------------------|
-------------7--7-7--7-|--7--7-7--7-10--------|--8---------------------|
--2--2---2-2-----------|-----------------10---|------8---10--10-10--10-|
-----------------------|----------------------|------------------------|


   E   S  E   S E  E  E     E  E  E   E   S  E   S  
-------------------------|-------------------------|
-------------------------|-------------------------|
----------------8--8--8--|-------------------------|
--10--10-10--10----------|--8--8--8--10--10-10--10-|
-------------------------|-------------------------|


   E   S  E   S E  E  E      E   E   E   E   S  E   S  
-------------------------|----------------------------|
-------------------------|----------------------------|
----------------8--8--8--|--10--10--10--12--12-12--12-|
--10--10-10--10----------|----------------------------|
-------------------------|----------------------------|


   E   S  S  S  S  E   S  E   S     E   S  S  S  S  E   S  E   S  
--------------------------------|--------------------------------|
--------------------------------|--------------------------------|
--12--12-10-10-10-12--12-12--12-|--12--12-10-10-10-12--12-12--12-|
--------------------------------|--------------------------------|
--------------------------------|--------------------------------|


   E   S  S  S  S  E  Q       Q.     Q.     Q.        
---------------------------|------------------------||
---------------------------|-----------------------*||
--12--12-10-10-10-12-------|------------------------||
---------------------------|-----------------------*||
---------------------------|------------------------||




Duration Legend
---------------
W - whole
H - half
Q - quarter
E - 8th
S - 16th
T - 32nd
X - 64th
. - note dotted
|-n-|  - n-tuplet
Login or Register to remove this ad.

1 comment on Level 1

de koi??

une bass avec 5 corde....c peter sa...