Ads

Title Screen (Godzilla: Monster of Monsters) Guitar Tab

Submitted: Apr 02, 2008 by Helloween666

0
Download | Listen
Game: Godzilla: Monster of Monsters
Composer(s): Ifukube Akira
Style: Transcription

AutoScroll: Slow | Medium | Fast
            GODZILLA: PLANET X

For this tab you have to go fast...
If you listen to the music you should know how it goes...

|--------------|--------------|--------------------|
|--------------|--------------|--------------------|
|--------------|--------------|------------------0-|
|--------------|-0------------|-------------0--3-0-|
|-3-2-0(x5)----|---3-2(x6)--0-|-3-2-0(x4)-3--------|
|--------------|--------------|--------------------|


|--------------|--------------|--------------------|
|--------------|--------------|--------------------|
|--------------|--------------|--------------------|
|-2-0----------|-3-2-0(x6)----|-2-0-------2-0--2---|
|-----3(x5)----|------------3-|-----3(x4)----------|
|--------------|--------------|--------------------|

|---------0-2-3-2-0----------|------------------|-----1-----------1---|
|-0-0-3-0-----------0-2-3(x2)|---1-3--------1---|-------4-3-1-3-4---2-|
|----------------------------|-3-----2--2-3---0-|-2-3-----------------|
|----------------------------|------------------|---------------------|
|----------------------------|------------------|---------------------|
|----------------------------|------------------|---------------------|

|-----0----------6-----|-----------------|
|-2-3---0----2-3-------|-----------------|
|----------------------|-----------------|
|----------------------|-2-1-0-2-1-0-2-1-|
|----------------------|-----------------|
|----------------------|-----------------|

|----------------------------------------------|----------------------|
|----------------------------------------------|----------------------|
|-4-3-5-5-6-5-6-5-7-7-8-7-8-7-9-9-10-9-10-9-11-|----------------------|
|----------------------------------------------|----------------------|
|----------------------------------------------|----------------------|
|----------------------------------------------|-1-2------------------|

And then repeat this tab as many times as you want...





TAB MADE BY: NICOLAS FIORE(Helloween666)

COMPOSER: Ifukube Akira                                               

(I think it’s him...that’s the only name I found for the music.)
Login or Register to remove this ad.