Rebel Army Theme (Final Fantasy II) Guitar Tab

Submitted: Dec 04, 2008 by TrangOul (Last updated: Sep 19, 2009)

4.77778
Average: 4.8 (18 votes)
Download | Listen
Game: Final Fantasy II
Composer(s): Nobuo Uematsu
Style: Arrangement, Fingerstyle
Series: Final Fantasy

AutoScroll: Slow | Medium | Fast
The Rebel Army
From Final Fantasy II
Originally composed by Nobuo Uematsu
Arranged by Marcus Kasperski

Standard Tuning | Moderato
                                ^                                               
                  |--3--|                                    |--3-|             
     H.           E  E  E       Q.     S S Q    Q       Q    Q    E  Q    Q     
E||------------------------||------------------------|--0----3----1--0---------|
B||---------------------0--||---1------0-1-3---------|--1----3-------3----3----|
G||------------------2-----||*--2----------0----0----|--------------------4----|
D||---------------2--------||*--2--------------------|-------------------------|
A||------------------------||---0---------------2----|--3----2-----------------|
E||------------------------||--------------3---------|---------------4----0----|


                                                  ^                      
  Q    E  E  E  E  E  E     H        Q    Q       Q.     E  E  E  E  E   
--0----5-----3--5--3-----|--0-------------0----|--5------5--3-----0--1--|
--1----------3--------3--|--1------------------|--6---------3--3--------|
----------------------4--|---------------------|---------------4--------|
-------------------------|---------------------|--3---------------------|
--0-------0--2--------2--|--3--------1---------|------------------2-----|
-------------------------|---------------------|------------3-----------|


                                                                 ^              
       |--3-|                               |--3--|                   |--3--|   
  Q    Q    E  Q    Q       Q    E  E  Q    E  E  E     H        Q    E  E  E   
--0---------1--0---------|---------------------------|--0--------0-------------|
--1----3-------1----1----|--0-------0--4----0--2--4--|----------------------0--|
-------------------------|---------------------------|--2--------1-------2-----|
--------------------0----|--1----------4-------------|--2--------2----2--------|
--0----2-------3---------|-------2----------2--------|-------------------------|
-------------------------|---------------------------|-------------------------|


  ^                                                                          
                               |--3-|                                        
  Q.     S S Q    Q       Q    Q    E  Q    Q       Q    E  E  E  S S E  E   
-----------------------|--0----3----1--0---------|--0----5-----3--3-5-3-----|
--1------0-1-3---------|--1----3-------3----3----|--1----------3---------3--|
--2----------0----0----|--------------------4----|-----------------------4--|
--2--------------------|-------------------------|--------------------------|
--0---------------2----|--3----2-----------------|--0-------0--2---------2--|
-------------3---------|---------------4----0----|--------------------------|


                        ^                                                
                                                      |--3-|             
  H        Q    Q       Q    Q    E  E  E  E     Q    Q    E  Q    Q     
--0-------------0----|--5----8----7--5--3--1--|--0---------1--0---------|
--1------------------|------------8-----3-----|--1----3-------1----1----|
---------------------|--5---------0-----------|-------------------------|
---------------------|--3---------------------|--------------------0----|
--3--------1---------|------------------2-----|--0----2-------3---------|
---------------------|------------------------|-------------------------|


                            1___________________________  
                  |--3--|  |                  |--3--|     
  Q    E  E  Q    E  E  E  |  Q    E.  S Q    E  E  E     
-------------0-------------|----------------------------||
--0-------0-------------0--|------------------------0---||
--2----------1----1--2-----|--2----------2-------2-----*||
--3------------------------|-------2---2------2--------*||
-------0-------------------|--0-------------------------||
-------------4----0--------|----------------------------||


2_____________________
  Q    E.  S H          
----------------------||
----------------------||
--2----------2--------||
-------2---2-2--------||
--0----------0--------||
----------------------||




Duration Legend
---------------
H - half
Q - quarter
E - 8th
S - 16th
. - note dotted
|-n-|  - n-tuplets


Tablature Legend
----------------
L - tied note
^ - brush up
Login or Register to remove this ad.

4 comments on Rebel Army Theme

Epic ! I love it !

5

Epic !
I love it !

Amazing!

5

I can't believe I missed this one before! Way too much fun, and easy to play!

Thank you!

Man, I need to train!

5

I really want to play this! But I'm not too good...

Nice work!

just created an account to

just created an account to thank you for this. gave me a little something to practice and it's got just enough difficult moves for my level. Not to mention I love the little tune. :)