Prologue (Final Fantasy) Guitar Tab

Submitted: Jul 24, 2008 by BigMikeTwo (Last updated: Oct 18, 2009)

3.714285
Average: 3.7 (7 votes)
Download | Listen
Game: Final Fantasy
Composer(s): Nobuo Uematsu
Style: Arrangement, Fingerstyle
Series: Final Fantasy

AutoScroll: Slow | Medium | Fast
Final Fantasy I -- Prologue [Main Theme]

Original Score by Nobuo Uematsu
Tabbed by BigMikeTwo
Based on and adapted from Shade's version


BPM = 120

     Q  Q   Q  Q     H    Q  Q     Q  E E Q  Q     H    H
e||---------------|-------------|---------------|------------|-------
B||---------7-----|-10----9--7--|---------7-----|------------|-------
G||*-----9--------|--9----9-----|--9--8-9----9--|--9----8----|-------
D||*--9--------9--|--9----9-----|--8------------|--9----9----|-------
A||---------------|-------------|---------------|------------|-------
E||---------------|-------------|---------------|------------|-------
        
                                                                     REPEAT
    Q   Q   Q  Q      H     Q   Q     Q   E  E Q   Q      H      H     x2
e|-----------------|---------------|-------------------|---------------||
B|----------9------|--12----10--9--|---------9---------|---------------||
G|------11---------|--11----11-----|--11--10---11------|--13----11----*||
D|--11---------11--|--11----11-----|--10-----------11--|--15----11----*||
A|-----------------|---------------|-------------------|---------------||
E|-----------------|---------------|-------------------|---------------||


    H.     Q     H.     Q     Q   E  E Q  Q      Q   Q   Q  Q
e|--9------9--|--7---------|------------------|-------------7--|------
B|--10-----10-|--9------9--|--10--10-9-7------|------9--10-----|------
G|--9------9--|--9---------|--11----------10--|--11------------|------
D|--11-----11-|--9---------|--11--------------|----------------|------
A|------------|------------|------------------|----------------|------
E|------------|------------|------------------|----------------|------

                                                               D.C.
    H.      Q      H.     Q      Q  E E Q  E E     Q  Q   Q  Q   
e|--10------10--|--9----------|--7--7-8-7--7-8--|--7------------||
B|--11------11--|--10-----10--|-----------------|-----10--9--7--||
G|--10------10--|--9----------|--8--------------|--8------------||
D|--12------12--|--11---------|-----------------|---------------||
A|--------------|-------------|-----------------|---------------||
E|--------------|-------------|-----------------|---------------||


H. = Dotted Half Note = 3 beats
H  = Half Note        = 2 beats
Q  = Quarter Note     = 1 beat
E  = Eighth Note      = 1/2 beat
D.C. = "da capo" = "from the beginning"
Login or Register to remove this ad.

1 comment on Prologue

Some notes sound wrong but

3

Some notes sound wrong but good work!