Ads

Eternal Wind (Final Fantasy III) Guitar Tab

Submitted: Sep 30, 2007 by archard

5
Average: 5 (2 votes)
Download | Listen
Game: Final Fantasy III
Composer(s): Nobuo Uematsu
Style: Transcription
Series: Final Fantasy

AutoScroll: Slow | Medium | Fast
Eternal Wind
Final Fantasy III
Composed by Nobuo Uematsu

8/13/06

e------3-0-------0--------------0--------
B--3---------1-3------------3-----1---3-0
G----------------------------------------
D----------------------------------------
A----------------------------------------
E---------------------------------------- x2

e-------0-2-4-5----0-0-3-5-8-7-3-5---0-0---0---0-3-3--------0-1-1-0---0-----4
B-0-1-3----------------------------------3-----------3--3-3---------3--------
G----------------------------------------------------------------------------
D----------------------------------------------------------------------------
A----------------------------------------------------------------------------
E----------------------------------------------------------------------------

e--5----0-0-3-5-8-7-3-5---0-0---0----------5----5-3-1-0-------0
B-----------------------------3-------------------------3-1-3--
G--------------------------------------------------------------
D--------------------------------------------------------------
A--------------------------------------------------------------
E--------------------------------------------------------------
Login or Register to remove this ad.

1 comment on Eternal Wind

This is great, thanks

5

This is great, thanks