Main Theme (Final Fantasy II) Guitar Tab

Submitted: Sep 30, 2007 by archard

5
Average: 5 (4 votes)
Download | Listen
Game: Final Fantasy II
Composer(s): Nobuo Uematsu
Style: Transcription
Series: Final Fantasy

AutoScroll: Slow | Medium | Fast
Main Theme
Final Fantasy II
Composed by Nobuo Uematsu

8/20/06

e-------0------------------------------------------0-----3--1-----------0
B----------0-------1-0---0-----------------------1----3--------4-----0---
G--2-------------------2---0-------------------2-------------------------
D----------------2---------------2-----3-----3---------------------------
A------------------------------------------------------------------------
E------------------------------------------------------------------------

e-------0------------------------------------------------------------------0
B----------0-------1-0---0-------------------------1---------------0-1---3--
G--2-------------------2---0-------------------0-2----3--2--1--2------------
D----------------2---------------2-----3-----3------------------------------
A---------------------------------------------------------------------------
E---------------------------------------------------------------------------
Login or Register to remove this ad.

2 comments on Main Theme

Another good Job boys.

Another good Job boys.

Nice Music

Nice music, it's very easy, perfect for newbies...