Castle Cornelia (Final Fantasy) Guitar Tab

Submitted: Sep 30, 2007 by archard (Last updated: Oct 12, 2011)

4
Average: 4 (6 votes)
Download | Listen
Game: Final Fantasy
Composer(s): Nobuo Uematsu
Style: Transcription
Series: Final Fantasy

AutoScroll: Slow | Medium | Fast
Final Fantasy
Corneria Castle
Composed by Nobuo Uematsu

2/8/07

e--12---12-13-12-10----10------------------10------------------
B-------------------13-------------13---13----13-12-10-12------
G---------------------------12------------------------------9--
D--------------------------------------------------------------
A--------------------------------------------------------------
E--------------------------------------------------------------

e--------------10--12--13--15--13-12-10---------------12---13p12-10--
B--10---12-13----------------------------10--10-12-13----------------
G--------------------------------------------------------------------
D--------------------------------------------------------------------
A--------------------------------------------------------------------
E--------------------------------------------------------------------

Repeat forever
Login or Register to remove this ad.

3 comments on Castle Cornelia

i think this is perfect lol

i think this is perfect lol .good job! =)

You've got the melody right,

4

You've got the melody right, but on the game it's one tone (two frets) higher than this.

Repeat Forever

5

I don't think I'd be able to repeat this FOREVER.