Jungle (Contra) Bass Tab

Submitted: Oct 31, 2007 by Ice Climbers (Last updated: Aug 18, 2014)

0
Download | Listen
Game: Contra
Composer(s): Club Kukeiha
Style: Transcription

AutoScroll: Slow | Medium | Fast
                         Game: Contra (Probotector) 
                         Stage: First Stage - Bass 
                   Tabbed by: Erik Lundmark, Nicklas Engberg

                                   NOTE!!! 
         Sometimes you must ignore the timing! Just listen to the song! 

CONTACT:

www.myspace.com/iceclimbersrocks

[email protected]

G-10-8----------------------------------|-------------------------------------
D------10-8-10-8------------------------|----------------------1--1-0---------
A----------------11-10-11-10-8-6-8-----6|-3-1-3--------1-3-1-3--------1-3-1-3-
E----------------------------------6-8--|-------1--1-4------------------------
                                                                              
G---------------------|-------------------------------------------------------
D-------------1---1-0-|--------------------------1--1-0-----------------------
A--------1-3----3-----|3x-1-3-1-3--------1-3-1-3---------1-3-1-3--------1-3-1-
E-1--1-4--------------|-----------1--1-4-------------------------1--1-4-------
                                                                              
G--------0----------------3-5------------------------------3-5----------------
D----1-3--------------3--5----------------------------3--5--------------8-----
A-3----------3--5-6-3----------5--6--8--6-8--3--5-6-3-----------5--6--8-------
E-----------------------------------------------------------------------------
                                                                             
G-----7-5-3-2-----------------------------------------------------------------
D-5-3---------5-3-5-3----------------------------------------------3-5--------
A---------------------5-3-5-3--------3--5-6-3--5-6-----2-3--5-6--3------------
E-----------------------------6-5-3----------------3-6------------------------
                                                                              
G-------------------------------------------------------------0---------------
D-3-----------1------------------1-3-------1----3-------1-3-1----3------------
A------1-------------------0-1-3------3--------------1------------------------
E------------------3---1-3----------------------------------------------------
                                                                              
G------------------------------------------2-3-2----------------2-------------
D-5-5--5-3---------3--5-5--5-3---------3-5-------3---5-5--5-3-5-----------3-5-
A-----------6-6--6-------------6-6---6-----------------------------6-6--6-----
E-----------------------------------------------------------------------------
                                                                              
G-----------------------------------------------------------------------------
D--5-5---3-5-3--3-------------------------------------------------------------
A------6----------------------------------------------------------------------
E-----------------------------------------------------------------------------
Login or Register to remove this ad.