Ads

Saika (Colourful Mist) (Naruto Shippuuden) Guitar Tab

Submitted: Apr 06, 2013 by scarecrowlol

4.857145
Average: 4.9 (7 votes)
Download | Listen
Game: Naruto Shippuuden
Composer(s): Yasuharu Takanashi
Style: Arrangement, Fingerstyle, Pinch harmonics
Series: Naruto

AutoScroll: Slow | Medium | Fast
Title: Saika (Colourful Mist)
SubTitle: Naruto Shippuden
Artist: Takanashi Yasaharu
Tabber: Mitch Jackson
Tempo = 70
T/S = 3/4


     ♪♫•*¨*•.¸¸ CAPO 3 ¸¸.•*¨*•♫♪ 



ORIGINAL SONG = https://www.youtube.com/watch?v=c2ddzU7hA9M

KEY:

g = Grace note
~ = Vibrato
L = Let Ring
s = Slide
mp = Play a little more softly

  
     E  E  E  E  E  E       E  E  E  E  E  E       E  E  E  E  E  E       E  E  E  E  E  E                                                                    
E |--------0-------------|----------------------|--------0-------------|-----0----------------|
B |-----------1--3--0----|--------1-----0--3----|-----------1--3--0----|--------3-----1--0----|
G |----------------------|-----------2----------|----------------------|-----------0----------|
D |-----2----------------|-----2----------------|-----2----------------|----------------------|
A |--0-------------------|--0-------------------|--0-------------------|----------------------|
E |----------------------|----------------------|----------------------|--1-----3-------------|

  

     E  E  E  E  E  E       E  E  E  E  E  E       E  E  E  E  E  E       E  E  E  E  E  E                                                                     
  |--5-----12----5-------|--3-----8-----7-------|--0-----7-----3-------|--5-------------------|
  |-----------------0----|----------------------|-----------------0----|--------1-----0--3----|
  |----------------------|-----------------7----|-----------5----------|-----------2----------|
  |-----2-----10---------|-----2-----7----------|-----2----------------|-----2----------------|
  |--0-------------------|--0-------------------|--0-------------------|--0-------------------|
  |----------------------|----------------------|----------------------|----------------------|

                        

     E  E  E  E  E  E       E  E  E  E  E  E       E  E  E  E  E  E       E  E  E  E  E  E                                               
  |--5-----12----5-------|--3-----8-----7-------|--0-----3-----7-------|--5-----------0-------|
  |-----------------0----|----------------------|-----------0----------|--------1--------1----|
  |----------------------|-----------------7----|----------------------|-----------2----------|
  |-----2-----10---------|-----2-----7----------|-----0-----------7----|-----3----------------|
  |--0-------------------|--0-------------------|----------------------|----------------------|
  |----------------------|----------------------|--3-------------------|--1-------------------| 

                                                                     
                                                                          g
     E  E  E  E  E  E       E  E  E  E  E  E       E  E  E  E  E  E       E    E  E  E  E  E                                                                         
  |----------------------|--0-----------0-------|----------------------|----------3-------------|
  |--------1-----1-------|--------1--------1----|--------1-----3--0----|----------------3--0----|
  |-----------2-----2----|-----------2----------|-----------2----------|--4s5--------5----------|
  |-----3----------------|-----2----------------|-----2----------------|-------2----------------|
  |----------------------|--0-------------------|--0-------------------|--0---------------------|
  |--1-------------------|----------------------|----------------------|------------------------|

                                                                                
           g                        g                                         g
     E  E  E    E  E  E       E  E  E    E  E  E       E  E  E  E  E  E       E    E  E  E  E  E                                                                               
  |------------------------|------------------------|----------------------|----------3-------------|
  |--------3s5-----0--3----|-------------0--3--0----|--1~----1-----0--3----|----------------3--0----|
  |--4----------2----------|--5-----5s7-------------|-----------2----------|--4s5--------5----------|
  |-----2------------------|-----2------------------|-----2----------------|-------2----------------|
  |--0---------------------|--0---------------------|--0-------------------|--0---------------------|
  |------------------------|------------------------|----------------------|------------------------|

                                                                                
           g                              g             ^    
     E  E  E    E  E  E       E  E  E  E  E    E        E  E  E  E  E  E       E  E  E  E  E  E                                                                      
  |------------------------|------------------------||--0-----1-----5-------|--8-----7-----3-------|
  |--------3s5-----0--3----|--------3--0------------||----------------------|-----------------0----|
  |--4----------2----------|--0-----4-----5s7-------||o-2--------2-----5----|----------------------|
  |-----2------------------|-----0-------------7----||o-3--3----------------|-----------7----------|
  |--0---------------------|------------------------||----------------------|-----8----------------|
  |------------------------|--3---------------------||--1-------------------|----------------------|

                                                                                
     ^                                          |--FIRST ENDING-------->
     E  E  E  E  E  E       E  E  E  E  E  E       E  E  E  E  E  E       E  E  E  E  E  E                                                                        
  |--0-----------1-------|--0-------------------|--0-----1-----5-------|--8-----7-----3-------|
  |--------1--------1----|--------1-----3--0----|----------------------|-----------------0----|
  |--2--------2----------|-----------2----------|-----------2-----5----|----------------------|
  |--2--2----------------|-----2----------------|-----3----------------|-----------7----------|
  |--0-------------------|--0-------------------|----------------------|-----8----------------|
  |----------------------|----------------------|--1-------------------|----------------------|


                                                |--SECOND ENDING------->
     E  E  E  E  E  E       E  E  E  E  E  E       E  E  E  E  E  E       E  E  E  E  E  E    
  |--5-----------0-------|---------------------||--0-----1-----5-------|--10----8-----7-------|
  |--------1--------1----|--------1-----1--0---||----------------------|-----------------0----|
  |-----------2----------|-----------2--------o||-----------2-----5----|----------------------|
  |-----2----------------|-----2--------------o||-----3----------------|-----------7----------|
  |--0-------------------|--0------------------||----------------------|-----8----------------|
  |----------------------|---------------------||--1-------------------|----------------------|

                                                 mp
                                                   P.H   P.H   P.H        P.H   P.H   P.H    
     E  E  E  E  E  E       E  E  E  E  E  E       E  E  E  E  E  E       E  E  E  E  E  E     
  |--7-----------0-------|----------------------|-------<0>------------|----------------------|  (If the Pinch Harmonics
  |--------1--------1----|--------1-----3--0----|-----------1-----0----|-------<1>---<0>-3----|   are too challenging then
  |-----------2----------|-----------2----------|-<2>---------<2>------|-<0>-------2----------|   play this** in substitute  
  |-----2----------------|-----2----------------|-----2----------------|-----2----------------|   from bar 35 - 40)
  |--0-------------------|--0-------------------|--0-------------------|--0-------------------|
  |----------------------|----------------------|----------------------|----------------------|


     P.H   P.H   P.H        P.H                    P.H   P.H   P.H        P.H   P.H   P.H  
     E  E  E  E  E  E       E  E  E  E  E  E       E  E  E  E  E  E       E  E  E  E  E  E     
  |----------------------|----------------------|-------<0>------------|----------------------|
  |-------<0>-1-----0----|--------1-----0--3----|-----------1-----0----|-------<1>---<0>-3----|
  |-------------<0>------|-<2>~------2----------|-<2>---------<2>------|-<0>-------2----------|
  |-<2>-2----------------|-----2----------------|-----2----------------|-----2----------------|
  |--0-------------------|--0-------------------|--0-------------------|--0-------------------|
  |----------------------|----------------------|----------------------|----------------------|


     g                                            |---RALL--------> 65 BPM                60 BPM
     E    E  E  E  E  E       E  E  E  E  E  E       E  E  E  E  E  E       E  E  E  E  E  E    
  |----------3-----7-------|--5~----0-------------|----------------------|--------0-------------|
  |--3s5-------------------|-----------1--3--0----|--------1-----0--3----|-----------1--3--0----|
  |-------------4----------|----------------------|-----------2----------|----------------------|
  |-------0-----------7----|-----2----------------|-----2----------------|-----2----------------|
  |------------------------|--0-------------------|--0-------------------|--0-------------------|
  |--3---------------------|----------------------|----------------------|----------------------|


  |---RALL-------------------> 50 BPM
     E  E  E  E  E  E       E  E  H                H.  
  |-----0----------------|----------------------|----------------------||
  |--------3-----1--0----|----------------------|----------------------||
  |-----------0----------|--------2L------------|--L-------------------||
  |----------------------|-----2L---------------|--L-------------------||
  |----------------------|--0L------------------|--L-------------------||
  |--1-----3-------------|----------------------|----------------------||



** (substitute for Pinch Harmonics)

   mp
     E  E  E  E  E  E       E  E  E  E  E  E       E  E  E  E  E  E       E  E  E  E  E  E                                                                     
  |--5-----12----5-------|--3-----8-----7-------|--0-----7-----3-------|--5~------------------|
  |-----------------0----|----------------------|-----------------0----|--------1-----0--3----|
  |----------------------|-----------------7----|-----------5----------|-----------2----------|
  |-----2-----10---------|-----2-----7----------|-----2----------------|-----2----------------|
  |--0-------------------|--0-------------------|--0-------------------|--0-------------------|
  |----------------------|----------------------|----------------------|----------------------|


     E  E  E  E  E  E       E  E  E  E  E  E   
  |--5-----12----5-------|--3-----8-----7-------| 
  |-----------------0----|----------------------|
  |----------------------|-----------------7----| Continue on with 
  |-----2-----10---------|-----2-----7----------|      bar 41
  |--0-------------------|--0-------------------|
  |----------------------|----------------------|
Login or Register to remove this ad.

2 comments on Saika (Colourful Mist)

Beautiful!

5

Beautiful!

A few changes I noticed I

5

A few changes I noticed I would make as I was playing through this, you might like it.

Instead of:

  E  E  E  E  E  E    
--5-----12----5-------|
-----------------0----|
----------------------|
-----2-----10---------|
--0-------------------|
----------------------|

try this:

  E  E  E  E  E  E    
--5-----12------------|
--------------10-0----|
----------------------|
-----2-----10---------|
--0-------------------|
----------------------|

(I like to do a strong pull off so it sounds like I pluck the open string)

and instead of this:

  E  E  E  E  E  E     
--8-----7-----3-------|
-----------------0----|
----------------------|
-----------7----------|
-----8----------------|
----------------------|

try this:

  E  E  E  E  E  E     
--8-----7-------------|
--------------8--0----|
----------------------|
-----------7----------|
-----8----------------|
----------------------|

(same thing about the pull off)

Great sounding tab!