Ads

Peaceful Theme (Naruto Shippuuden) Guitar Tab

Submitted: Apr 14, 2013 by QwertySoares

5
Average: 5 (5 votes)
Download | Listen
Game: Naruto Shippuuden
Composer(s): Yasuharu Takanashi
Style: Arrangement, Fingerstyle
Series: Naruto

AutoScroll: Slow | Medium | Fast
Title: Peaceful Theme
Artist: Naruto
Music: Yasuharu Takanashi
A lot of the second half is probably wrong. I'm not that great with chords. If you can, please improve it and upload it!
Tabber: QwertySoares
Tempo = 120

Legend
L - tied note
x - dead note
h - hammer on/pull off
b - bend
s - slide
~ - vibrato
g - ghost note
> - accentuated note
t - trill
M - palm mute
. - staccato
P - popping (bass)
S - slapping (bass)
+ - tapping
W - wide vibrato
< - fade in
w - whammy bar
= - tremolo picking
v - brush up
^ - brush down
V - pick stroke up
n - pick stroke down

                                                             
E |--5--------------5--7--9----|--5-------------------------|
B |--------------8-------------|--------------------7s-8----|
G |-----------7----------------|--------------7-------------|
D |--------7-------------------|--------7-------------------|
A |--5-------------------------|--5-------------------------|
E |----------------------------|----------------------------|

                                                          
--5--------------5--7--9----|--5-----------10s---9-------|
--------------8-------------|----------------------------|
-----------7----------------|-----------7----------------|
--------7-------------------|--------7-------------------|
--5-------------------------|--5-------------------------|
----------------------------|----------------------------|

                                                      ^        
--5--------------5--7--9----|--5--------5----|--------10-14---|
--------------8-------------|----------------|--7-----7-------|
-----------7----------------|--------7-------|--------7-------|
--------7-------------------|-----7----------|--7-----7-------|
--5-------------------------|--5-------------|----------------|
----------------------------|----------------|----------------|

  ^                                                                        
--10-------------------0----||-2-----------0--2--5--2----|--0-------------|
--7-----------------3-------||-------------3-----3-------|--------3--0----|
--7-------------------------||o------2-------------------|--------0-------|
--7-------------------------||o0-------------------------|-----0----------|
----------------------------||---------------------------|----------------|
----------------------------||---------------------------|--3-------------|

                                                                           
--2>----------0--2--5--2----|--0-------------------------|----------------|
--3-----------------3-------|-----------3--------2-------|--3-------------|
--------------4-------------|--------------2-----4-------|-----0----------|
--------4-------------------|--------2-------------------|--------4--2----|
--2-------------------------|--0-------------------------|----------------|
----------------------------|----------------------------|--3-----2-------|

                                                                           
----------------|-----------------------0----|-----------------------0>--||
-----------0----|--3--------------2--3-------|--------------3s-2--3>-----||
--------0-------|--------------2-----4-------|--------------------------o||
-----2----------|--------2-------------------|--------2-----------------o||
----------------|--0-------------------------|--0------------------------||
--0-------------|----------------------------|---------------------------||

                   ^                ^                           
-----------0----|----------------|--------------2-------------||
--3-----3-------|--3--------2----|--3-----------------3g-2g---||
--4-----2-------|--0-----2-------|--2-----2-------------------||
-----2----------|--2--2g---------|--0-------------------------||
--0-------------|----------------|----------------------------||
----------------|----------------|----------------------------||

 ^           ^                ^                          
-------------------0-------|----------------------------|
-------0-----3-------------|--3-----3g----------2-------|
o2-----------0-------------|--2-----------2g------------|
o0-----0-------------------|--2-----2g------------------|
---------------------------|--0--------0g-------0-------|
-3--------3g---------------|----------------------------|

  ^           ^                ^     ^  v        v        
----------------------------|--------2g-2g-0g-2g-2g------|
--0-----------------0-------|--------3g-3g-3g----3g------|
--0-----------2-------------|--2-----2g----2g----2g------|
--0-----0g----0-------------|--0-----0g----------0g------|
--2--------2g-2-----2-------|--0-------------------------|
----------------------------|----------------------------|

  ^           ^                ^                 ^  v     
--------------------0-------|--------------2g----2--3----|
--------0-----3-------------|--3-----3g----------3--3----|
--2-----------0-------------|--2-----------2g----2-------|
--0-----0-------------------|--2-----2g----------0-------|
----------------------------|--0--------0g---------------|
--3--------3g---------------|----------------------------|

                                                          
--2--------0----------------|--0------------------------||
-----------3--0g----3-------|-----------0g-2g-----------||
-----------2----------------|-----------2g-------------o||
--------2g----------0-------|--------2g----------------o||
----------------------------|--0-----------------0g-----||
--3-------------------------|---------------------------||

                               ^                                  
--2--------0--------2-------|--5.---||-------------------2-------|
--------------0g------------|--3.---||----0--------3-------------|
----------------------------|--2.---||o2-----2-------------------|
--0-----0g-2--------0-------|--2.---||o0-----0--4--2-----0-------|
----------------------------|--0----||---------------------------|
----------------------------|-------||---------------------------|

                                                          
----------------------------|----------------------------|
--------------------0-------|--------------3-------------|
--2--4--2-----0-------------|--2--4--2-----------4-------|
--------0--4--2-----0-------|--------4--4--2-----0-------|
----------------------------|--2-------------------------|
--3-------------------------|----------------------------|

                                                          
----------------------------|--------------------2-------|
--2-----------2-------------|-----0--------3-------------|
-----------2--2-----2-------|--2-----2-------------------|
--------2-------------------|--0-----0--4--2-----0-------|
--0-------------------------|----------------------------|
----------------------------|----------------------------|

                               ^                          
-----2-----0-----------0----|----------------------------|
-----------------3----------|--3-----------0-----2--3----|
--2-----2-----2-----2-------|--0--------0----------------|
--4-----2-----0-----2-------|--------0-------------------|
----------------------------|----------------------------|
----------------------------|--3-----------------3-------|

                                                                                
--------------------------------------------------------------------------------
--2s-5--------------------------------------------------------------------------
-----------------------------------------------------6--------------------------
-----------------------------------------7-----------------------------------7g-
--0--------------------------7L----------7L----------7-----------------------7g-
--------------------------------------------------------------------------------

                                                                      
----------------------||--0-------------|--------0-----------0-------|
----------------------||-----3--2-------|-----3-----------3----------|
---------------------o||--------2--2----|--4-----------2-------------|
---------------------o||-----0-----0----|--5-----5-----4-----4-------|
----------------------||--0-------------|----------------------------|
----------------------||----------------|----------------------------|

                                                          
----------------------------|--0-------------------------|
--------------0--2--3L-3----|-----3--------------2L-2----|
--0--------2-----------0----|----------------------------|
--2-----------2-----2-------|-----0-----2-----------2----|
----------------------------|-----------------4----------|
----------------------------|----------------------------|

                                                          
-----2--------2-----5--7----|--9--5-----------------5L---|
--3--3-----3-----8----------|----------------------------|
-----2----------------------|-----------------7----------|
-----0----------------------|-----------7----------------|
----------------------------|-----5----------------------|
----------------------------|----------------------------|

     ^           ^                ^                       
--5--------------10----14L--|--14-10L--------------------|
-----7-----------7----------|-----7L---------------------|
-----7-----------7----------|-----7L---------------------|
-----------------7----------|-----7L---------------------|
----------------------------|----------------------------|
----------------------------|----------------------------|

     ^
--10-10---------------------|----||
--7--7----------------------|----||
--7--7----------------------|----||
--7-------------------------|----||
----------------------------|----||
----------------------------|----||

Login or Register to remove this ad.

2 comments on Peaceful Theme

Thanks for this tab,you are

Thanks for this tab,you are my hero <3

I just wrote my version a

5

I just wrote my version a couple of weeks ago. This is very good stuff for a first attempt. Gotta say that the first part of the song goes exactly the same way that I wanted to play it at first, but then I had to give up on the capo to be able to play the second part better. Btw, if you're not good with chords, search for piano sheets or piano covers and focus on the left hand part. Since I suck at figuring out chords, that's what I always do... :P