Man of the World (Naruto Shippuuden) Ukulele Tab

Submitted: Aug 10, 2015 by CandyCane52

3
Average: 3 (2 votes)
Download | Listen
Game: Naruto Shippuuden
Composer(s): Yasuharu Takanashi
Style: Transcription
Series: Naruto

AutoScroll: Slow | Medium | Fast
Man of the World
Naruto Shippuden (Anime)
Takanashi Yasuharu
CandyCane52
10/08/2015

G-------------------------0-------------0-----0-
C-2-----------5-------------------------0-------
E-5-----------6----------10-------------------0-
A-8--10--7----5--7--8----13--12--10----10--8--7-

G-------------------------------------------
C-5--7--4----2--4--5----10--9--7----7--5--4-
E-------------------------------------------
A-------------------------------------------

G---------------------------------	------------------0-0-----0--0---------
C-2--------2-------2--------------	-2-----2--------0-0-----0-2--2-------0-
E------------------------5--------	-1--0-----1p0-0-------0---3-----1----3-
A---0-8-10---0-7-5---0-3-5--8-7-3-	-------0----------3-------1-----0----3-

G-----------	------------------0-0------0--0----------------
C-0-------0-	-2-----2--------0--------0-2--2-------0----0---
E---0-1-0---	-1--0-----1p0-0---0---0----3-----1----3--0---8-
A-----------	-------0----------3--------1-----0----3------7-

G--------------------------------------------
C--------0-----------------------------------
E-5------3------------5----5-----------------
A-5--7-5-3--12-10-10--8----8-10-12--3--3-5-5-

G----------------------------------------------
C-------0------------------------------------2-
E-5-----3------------------5-----------------5-
A-5--7--3--12-10-13--12----8--10--12--3--3h5-5-

G-----------------------------------
C-2--------2-------2----------------
E------------------------5----------
A---0-8-10---0-7-5---0-3-5--8-7-3-x2
 2:07
G--------------------------------------------------------------------------
C----------------------------------------------------------------------0-2-
E-1--0-----0--------3----------1--0-----0--------3-----------------1-0---1-
A-------0-----3--1-----0--3----------0-----3--1-----0----3----7----------0-
Login or Register to remove this ad.