Ads

Fonte (Duet) (Nagi no Asukara) Guitar Tab

Submitted: May 14, 2014 by Tracedawn (Last updated: May 16, 2014)

5
Average: 5 (3 votes)
Download | Listen
Game: Nagi no Asukara
Composer(s): Yoshiaki Dewa, Zentaro Watanabe, Saigenji
Style: 2 or more instruments, Natural harmonics, Transcription

This song is also called Fountain

AutoScroll: Slow | Medium | Fast
"Fonte" by Saigenji
From Nagi no Asukara
Tabbed by: Primoelodies / Tracedawn


Guitar 1:
Standard Tuning

	Playing sequence: A (x4) B (x4) C (x3) D (x1)
			  A (x2) B (x2) C (x1) D (x1)
			  A (x2) E (x1)

Part A:

        NH    NH    NH                    NH    NH    NH                   NH    NH    NH                                 
   E     E     E     E  H            E     E     E     E  H           E     E     E     E  H           W                 
------<>12-----------------------|------<>12-----------------------|-----<>12-----------------------|--------------------|
------------<>12-----------------|------------<>12-----------------|-----------<>12-----------------|--------------------|
------------------<>12--L--------|------------------<>12--L--------|-----------------<>12--L--------|--L-----------------|
---------------------------------|---------------------------------|--------------------------------|--L-----------------|
---------------------------------|---------------------------------|--------------------------------|--------------------|
---8-----------------------------|--10-----------------------------|--0-----------------------------|--------------------|


Part B:

  E  E  E  E  H           E  E  E  E  H           E  E  E  E  H           W                       
-----0-----------------|-----0-----------------|-----0-----------------|-------------------|
--------0--------------|--------0--------------|--------0--------------|-------------------|
-----------0--L--------|-----------0--L--------|-----------0--L--------|--L----------------|
-----------------------|--0--------------------|-----------------------|-------------------|
--3--------------------|-----------------------|-----------------------|-------------------|
-----------------------|-----------------------|--0--------------------|-------------------|


Part C:

  E  E  E  E  H           E  E  E  E  H           E  E  E  E  H           W                 
-----3-----------------|-----3-----------------|--------0--2--L--------|--L----------------|
--------1--0--L--------|--------1--0--L--------|-----0-----------------|-------------------|
-----------------------|-----------------------|-----------------------|-------------------|
-----------------------|--0--------------------|-----------------------|-------------------|
--3--------------------|-----------------------|-----------------------|-------------------|
-----------------------|-----------------------|--0--------------------|-------------------|


Part D:

  E  E  E  E  H           E  E  E  E  H           E  E  E  E  H           W           
-----3-----------------|-----3-----------------|-----------2--L--------|--L----------------|
--------1--0--L--------|--------1--0--L--------|--------1--------------|-------------------|
-----------------------|-----------------------|-----2-----------------|-------------------|
-----------------------|--0--------------------|--1--------------------|-------------------|
--3--------------------|-----------------------|-----------------------|-------------------|
-----------------------|-----------------------|-----------------------|-------------------|


Part E:

       NH    NH    NH                                                    
  E     E     E     E  H           W                                      
-----<>12-----------------------|-------------------|-------------------||
-----------<>12-----------------|-------------------|-------------------||
-----------------<>12--L--------|--L----------------|-------------------||
--------------------------------|-------------------|-------------------||
--------------------------------|-------------------|-------------------||
--8-----------------------------|-------------------|-------------------||




Guitar 2:
Standard Tuning



      W                   W                   W                   W                 3x  W                 
E||--------------------|-------------------|-------------------|--------------------||-------------------|
B||--------------------|-------------------|-------------------|--------------------||-------------------|
G||*-------------------|-------------------|-------------------|-------------------*||-------------------|
D||*-------------------|-------------------|-------------------|-------------------*||-------------------|
A||--------------------|-------------------|-------------------|--------------------||-------------------|
E||--------------------|-------------------|-------------------|--------------------||-------------------|


  W                   W                   H.           E   E     E  E  E  E  H           H.           E  S  S  
-------------------|-------------------|----------------------|--7--8--7--------------|-----------------------|
-------------------|-------------------|---------------8--10--|-----------8--L--------|------------------7h-8-|
-------------------|-------------------|----------------------|-----------------------|-----------------------|
-------------------|-------------------|----------------------|-----------------------|-----------------------|
-------------------|-------------------|----------------------|-----------------------|-----------------------|
-------------------|-------------------|----------------------|-----------------------|-----------------------|


                                                  |-----3----|    |-----3----|                               
  E  E  E  E  H           H        E  E.   E.     Q    Q     Q    Q    Q     Q        Q.     E  E  E  E  E   
-----------------------|-----------------------|--7----8----10----7---------------|-------------------------|
--7--------------------|--------------8---10---|-----------------------8----10----|---L------8--7-----------|
-----9--7--7--L--------|--L--------------------|----------------------------------|----------------7--9--9--|
-----------------------|-----------------------|----------------------------------|-------------------------|
-----------------------|-----------------------|----------------------------------|-------------------------|
-----------------------|-----------------------|----------------------------------|-------------------------|


                                                             |----3----|                             
  W                   H.           E  E      E   E   E   E   Q    Q    Q       H.           E  S  S  
-------------------|---------------7--8--|--10--10--10--10--10----8----7----|-----------------------|
-------------------|---------------------|----------------------------------|--8---------------7h-8-|
--L----------------|---------------------|----------------------------------|-----------------------|
-------------------|---------------------|----------------------------------|-----------------------|
-------------------|---------------------|----------------------------------|-----------------------|
-------------------|---------------------|----------------------------------|-----------------------|


   E   E   E  E  E  E  S  S E     H         Q      Q       E  E  E  E  Q.       E     Q.     Q.     E  S  S  
-------------------------------|------------------------|--7--8--7-----------------|------------------------|
--10--10--10--8--7-------------|-----------/8----/10----|-----------8--L------/10--|--7---------------------|
--------------------7--7s-9-7--|--L---------------------|--------------------------|---------9------L--7S-9-|
-------------------------------|------------------------|--------------------------|------------------------|
-------------------------------|------------------------|--------------------------|------------------------|
-------------------------------|------------------------|--------------------------|------------------------|


  |----3----|                                                                                      
  Q    Q    Q    H           H         E.  E.  S S    E.  E.  H        E     H.           E  S  S  
--------------------------|-----------10---8---7-8-|--7-------------------|-----------------------|
--7----8----7-------------|------------------------|------8---8--------L--|------------------7h-8-|
-----------------9--------|--L---------------------|----------------------|-----------------------|
--------------------------|------------------------|----------------------|-----------------------|
--------------------------|------------------------|----------------------|-----------------------|
--------------------------|------------------------|----------------------|-----------------------|


   |-----3-----|                                                                                                   
   Q     Q     Q    E  E   Q       H        E   E.  E.     E  E   E  E  E  S  S E  E     S   S  H        Q     E   
--------------------------------|--------------10---8---|--7--8--10--7----------------|---------------------------|
--10----10----10----7-----------|-----------------------|---------------8-------8--8--|--8h-10p-8--------L--------|
-----------------------7S--9----|--L--------------------|------------------7h-9-------|---------------------------|
--------------------------------|-----------------------|-----------------------------|-----------------------10--|
--------------------------------|-----------------------|-----------------------------|---------------------------|
--------------------------------|-----------------------|-----------------------------|---------------------------|


  E   Q    Q     E  Q       H.            E   E      Q     E   E   E   E   E    E   
-------------------------|---------------12--14--|--15----12--10-------------------|
-----------7h----8--7----|--L--------------------|----------------12--10------/12--|
-------------------------|-----------------------|------------------------12-------|
--9----------------------|-----------------------|---------------------------------|
-----10------------------|-----------------------|---------------------------------|
-------------------------|-----------------------|---------------------------------|


  E  E   E  E   E   E   E   E      E   E   E   E  H           H.            E  E     T  T  S E  E  Q    E   E  E   
------------7--10--12--15--14--|--14--10-------------------|---------------10--8--|--7h-8p-7-------------------7--|
--L--8--10---------------------|----------12---------------|----------------------|----------8-----8----8--10-----|
-------------------------------|--------------11--L--------|--L-------------------|-------------9-----------------|
-------------------------------|---------------------------|----------------------|-------------------------------|
-------------------------------|---------------------------|----------------------|-------------------------------|
-------------------------------|---------------------------|----------------------|-------------------------------|


                                |-----3----|                                                       
  E  E   E  Q       E  E  E     Q    Q     Q    H            W                   W                 
--8--7--10--8br--------------|------------------8~--------|--L----------------|-------------------|
-------------------10--8--7--|-------7----10--------------|-------------------|-------------------|
-----------------------------|--8-------------------------|-------------------|-------------------|
-----------------------------|----------------------------|-------------------|-------------------|
-----------------------------|----------------------------|-------------------|-------------------|
-----------------------------|----------------------------|-------------------|-------------------|


  W                   W                   W                   W                   W                 
-------------------|-------------------|-------------------|-------------------|-------------------|
-------------------|-------------------|-------------------|-------------------|-------------------|
-------------------|-------------------|-------------------|-------------------|-------------------|
-------------------|-------------------|-------------------|-------------------|-------------------|
-------------------|-------------------|-------------------|-------------------|-------------------|
-------------------|-------------------|-------------------|-------------------|-------------------|


                                                                        |-------3------|  |----3----|     
  W                   H.           E   E     E  E  E  E  Q.       E     Q    Q    E    E  Q    Q    Q     
-------------------|----------------------|--7--8--7-----------------|-----------------------------------|
-------------------|---------------8--10--|-----------8--L-----------|--8----8----8h--10--7--------------|
-------------------|----------------------|---------------------8g9--|-------------------------9----7----|
-------------------|----------------------|--------------------------|-----------------------------------|
-------------------|----------------------|--------------------------|-----------------------------------|
-------------------|----------------------|--------------------------|-----------------------------------|


                                                   |-----3----|     |-------3------|                             
  E  S S E  E  H           H.           E  S  S    Q    Q     Q     Q     Q    E   E     E  E  E  E  Q.      E   
------------------------|-----------------------|--7----8----10----10----10----8p--7--|--8--7-------------------|
------------------------|------------------8-10-|-------------------------------------|--------8-----8------10--|
--7--9-7----------------|-----------------------|-------------------------------------|-----------9-------------|
---------9--7--L--------|--L--------------------|-------------------------------------|-------------------------|
------------------------|-----------------------|-------------------------------------|-------------------------|
------------------------|-----------------------|-------------------------------------|-------------------------|


   Q     E  E  E.   Q    S    H.           E  S  S     E   E   E  E  E  S S E  E     H.           E   S   S  
---------------------------|------------------7h-8-|--10--10--10--7---------------|------------------10S-12-|
--10----10--8--7h---8----L-|--L--------------------|-----------------8------8--8--|--L----------------------|
---------------------------|-----------------------|--------------------7-9-------|-------------------------|
---------------------------|-----------------------|------------------------------|-------------------------|
---------------------------|-----------------------|------------------------------|-------------------------|
---------------------------|-----------------------|------------------------------|-------------------------|


   E.   E.   H        E     H.            E   E      E   E   E   E   E   E   E  S   S    H.           E  E   
--12---14---15--------L--|--L------------12--14--|--15--14--12--10--------------------|---------------7--8--|
-------------------------|-----------------------|------------------12--10------8S-10-|--8------------------|
-------------------------|-----------------------|--------------------------12--------|---------------------|
-------------------------|-----------------------|------------------------------------|---------------------|
-------------------------|-----------------------|------------------------------------|---------------------|
-------------------------|-----------------------|------------------------------------|---------------------|


  Q    E   E  E  E  E  E     W                   W                   W                   W                 
--8----7------------------|-------------------|-------------------|-------------------|-------------------|
----------10--8--7--------|-------------------|-------------------|-------------------|-------------------|
--------------------9--8--|--L----------------|-------------------|-------------------|-------------------|
--------------------------|-------------------|-------------------|-------------------|-------------------|
--------------------------|-------------------|-------------------|-------------------|-------------------|
--------------------------|-------------------|-------------------|-------------------|-------------------|


  W                   W                   W                   W                   H.           E   E   
-------------------|-------------------|-------------------|-------------------|----------------------|
-------------------|-------------------|-------------------|-------------------|---------------8--10--|
-------------------|-------------------|-------------------|-------------------|----------------------|
-------------------|-------------------|-------------------|-------------------|----------------------|
-------------------|-------------------|-------------------|-------------------|----------------------|
-------------------|-------------------|-------------------|-------------------|----------------------|


  W                    W                                      
--7~----------------|--L----------------|-------------------||
--------------------|-------------------|-------------------||
--------------------|-------------------|-------------------||
--------------------|-------------------|-------------------||
--------------------|-------------------|-------------------||
--------------------|-------------------|-------------------||





Duration Legend
---------------
W - whole
H - half
Q - quarter
E - 8th
S - 16th
T - 32nd
X - 64th
. - note dotted
|-n-|  - n-tuplets


Tablature Legend
----------------
L - tied note
x - dead note
g - grace note
(n) - ghost note
> - accentuded note
NH - natural harmonic
AH - artificial harmonic
TH - tapped harmonic
SH - semi harmonic
PH - pitch harmonic
h - hammer on
p - pull off
b - bend
br - bendRelease
pb - preBend
pbr - preBendRelease
brb - bendReleaseBend
\n/ - tremolo bar dip
\n - tremolo bar dive
-/n - tremolo bar Release up
/n\ - tremolo bar inverted dip
/n - tremolo bar return
-\n - tremolo bar Release down
S - shift slide
s - legato slide
/ -  slide into from below or out of upwards
\ -  slide into from above or out of downwards
~ - vibrato
W - wide vibrato
tr - trill
TP - tremolo picking
T - tapping
S - slap
P - pop
< - fade in
^ - brush up
v - brush down
Login or Register to remove this ad.

2 comments on Fonte (Duet)

YESSS!!! YESSS!!!

I was planning on tabbing this one out, but thank you for doing the work for me! Great transcription of a beautiful song from an amazing anime!

Awesome

5

Totally awesome, but I have a correction.
15th bar, instead of a rest, play a D on the seventh fret of the G string (you can barely hear it but there actually is)
Sorry for my poor english, I'm not a native speaker.
Great job with the tab, if you could do "silencio" that would be great :) I've also got some parts of "Navio" if you need it. Bye.