Ads

Cry for the Moon (Nagi no Asukara) Guitar Tab

Submitted: Sep 29, 2015 by quinndangle2

5
Average: 5 (1 vote)
Download | Listen
Game: Nagi no Asukara
Composer(s): Yoshiaki Dewa, Zentaro Watanabe, Saigenji
Style: Arrangement, Fingerstyle

AutoScroll: Slow | Medium | Fast
Cry For the Moon
From Nagi no Asukara OST
Composer: Yoshiaka Dewa
Arranged by Brent Quinn	

Drop D tuning
4/4 Time
Tempo ~ 60

   E   E   E   E   Q.    S  S    E   E   E   E   H             E   E   E   E   Q.    E
E|-2---4---5---9---7-----------|---------4-------5-----------|-2---4---5---9---7-----7---|
B|-3---------------------9--7--|-5---7-------5---7-----------|-3-------------------------|
G|-2---------------9-----------|-6---------------6-----------|-2---------------9---------|
D|-0---------------9-----------|-6---------------4-----------|-0---------------9---------|
A|-----------------7-----------|-4---------------------------|-----------------7---------|
D|-----------------------------|-----------------------------|---------------------------|


   E   E   E   E   H           E   E   E   E   Q.    S  S    E   E   E   E   Q    E   S  S 
E|-7---9---10--13--9---------|-----------------------------|---------1-------2----0---------|
B|---------------------------|-3---------------------------|-2-------0-------2--------------|
G|-----------------11--------|-2-----------6---4-----------|---------1---4---2----1---------|
D|-6---------------11--------|-4---6---7-------2-----6--4--|-2---4---3-------4----2---2--4--|
A|-4---------------9---------|-0---------------2-----------|-4------------------------------|
D|---------------------------|-0---------------2-----------|--------------------------------|


   Q.    S  S  Q    Q      Q.    E   H              E   S  E.   E   Q    Q      E   S  E.   E   H
E|-2-----------4---------|-2----------------------|-9---7--9----12-------12---|-5---4--5----9---------|
B|-3-----------5----5----|-2-----2----------------|-----------------12--------|-----------------9-----|
G|-2-----------4---------|-2----------------------|-9---------------9---------|-6---------------------|
D|-0-----4--6--6---------|-4---------4------------|-7-------------------------|-4---------------9-----|
A|------------------7----|------------------------|-----------------11--------|-----------------7-----|
D|-----------------------|------------------------|---------------------------|-----------------------|

   E   S  E.   E   Q    E   E     E   E   E   E   E   E   Q         E   S  E.   E   Q.    E     
E|-------------5--------5---9---|-10--12------------------4-------|-9---7--9----12------------|
B|-7---5--7--------5------------|---------10--12------------------|-----------------12----12--|
G|------------------------------|---------------------4-----------|-9---------------9---------|
D|-7---------------6------------|-0---------------2---------------|-7-------------------------|
A|-5---------------4------------|-12------------------------------|-----------------11--------|
D|------------------------------|---------------------------------|---------------------------|


   E   E   E   E   Q.    E     E   E   E   E   E   E   E   S  S    Q.    E   E   E   Q 
E|-12--10--9-----------------|-------------------------12--10-9--|-10---------------------|
B|-------------10--------9---|-7---9---10----------10------------|-------9---7-------9----|
G|-----------------9---------|-------------9---------------------|-------------------9----|
D|-11--------------9---------|-7---------------7-----------------|-7-------------9--------|
A|-9---------------7---------|-5---------------4-----------------|-----------7------------|
D|---------------------------|-----------------------------------|-9----------------------|


   E   S  S  E   E   E   E   E   E     E   S  S  E   E   E   E   Q      E   S  S  E   E   E   E   E   E 
E|-5---4--5------9---------------9---|-7---9--10-----12--9------------|-5---4--5------9-------------------|
B|-----------7-------7---------------|---------------------------10---|-----------7-------7-----------7---|
G|-----6---------------------7-------|-----------9-----------9--------|-----6---------------------7-------|
D|-4---------------------7-----------|-----9-------------7------------|-4---------------------7-----------|
A|-------------------5---------------|-7------------------------------|-------------------5---------------|
D|-----------------------------------|--------------------------------|-----------------------------------|


   E   E   E   S  S  E   E   E   E     E   S  S  E   E   E   E   E   E     E   E   E   E   Q    Q 
E|-----------------------------------|-5---4--5------9---------------9---|-7-------10--9---9----7----|
B|-----------------------------------|-----------7-------7---------------|-----------------9---------|
G|-9-------9---7--6------------------|-----6---------------------7-------|---------9-------10--------|
D|-----9---11--------7-------6-------|-4---------------------7-----------|-----9---------------------|
A|-7---------------------7-------7---|-------------------5---------------|-7-------------------------|
D|-------------------7-------6-------|-----------------------------------|-----------------11--------|


   E   E   E   E   E   E   E   E     E   E   E   E   H       E   E   E   E   E   E   E    E
E|-5---4---------------------------|-----------------------|-3-------3-------3-------3-------|
B|---------7-------5---------------|-----------------------|-3-------3-------3-------3-------|
G|-----6---9---6-------7-------6---|-4---------------9-----|-0-------0-------0-------0-------|
D|-4-------------------7---7-------|-------------7---7-----|-2-------2-------2-------2-------|
A|-----------------5---------------|-7-------7-------7-----|-----3-------3-------3-------3---|
D|-------------------------7-------|-----9-----------------|---------------------------------|


   E   E   E   E   E   E   E   E     E   E   E   E   E   E   E   E     E   E   E   E   H
E|-1-------1-------1-------1-------|-0-------0-------0-------0-------|-1-------1-------1-----|
B|-3-------3-------3-------3-------|-3-------3-------3-------3-------|-3-------3-------3-----|
G|-0-------0-------0-------0-------|-0-------0-------0-------0-------|-0-------0-------0-----|
D|-2-------2-------2-------2-------|-2-------2-------2-------2-------|-2-------2-------2-----|
A|-----3-------3-------3-------3---|-----3-------3-------3-------3---|-----3-------3---3-----|
D|---------------------------------|---------------------------------|-----------------------|


   E   S  S  E   E   E   E   E   S  S    E   S  S  E   E   E   E   Q      E   S  S  E   E   E   E   E   E 
E|-----7--8------12--10----------7-----|--------7----------8------------|-----7--8------12--10----------10--|
B|-10-------------------------------10-|-8---10--------8-----------10---|-10--------------------------------|
G|-----------10--------------12--------|-----------9-----------9--------|-----------10--------------12------|
D|-----10----------------12------------|-----9-------------7------------|-----10----------------12----------|
A|-8-----------------10----------------|-7------------------------------|-8-----------------10--------------|
D|-------------------------------------|--------------------------------|-----------------------------------|


   E   S  S  E   E   E   E   Q         E   S  S  E   E   E   E   E   S  S    E   S  S  E   E   E   E   Q
E|-10--12-13-----15--12--------------|-----7--8------12--10----------7-----|--------7------10--8-------7-------|
B|---------------------------10------|-10-------------------------------10-|-8---10----------------------------|
G|-----------9-----------9-----------|-----------10--------------12--------|-----------------------9-----------|
D|-----9-------------7---------------|-----10----------------12------------|-----9-----6-------7---------------|
A|-7---------------------------------|-8-----------------10----------------|-7---------------------------------|
D|-----------------------------------|-------------------------------------|-----------------------------------|

									
										Slower (~50bpm)
   E   E   E   E   E   E   E   E     E   E   E   E   E   E   Q       W       E   S  E.   E   Q.    S  S
E|-------------5---7-------7-------|-------------12--10-----------|--------|-----7--8----12--10----7-----|
B|-10--------------------------8---|-10---------------------------|--------|-10-----------------------10-|
G|---------10----------7-----------|---------10--------------12---|--------|-----------------------------|
D|-----10----------5---------------|-----10------10------12-------|--------|-7---------------9-----------|
A|-8-------------------------------|-8---------------10-----------|--------|-----------------------------|
D|---------------------------------|------------------------------|--------|-----------------------------|


   E   S  E.   E   H       E   S  E.   E   Q    E      E   E   E   E   H       W 
E|--------7--------8-----|-----7--8----12--10---7----|-8---------------8-----|-L------|
B|-8---10------8---------|-10------------------------|-----------------8-----|-L------|
G|-----------------------|---------------------------|-------------9---9-----|-L------|
D|-----------------10----|-7---------------9---------|-10------10------10----|-L------|
A|-10--------------------|---------------------------|-----10----------------|--------|
D|-----------------------|---------------------------|-----------------------|--------|



|Key|

W = Whole Note
H = Half
Q = Quarter
E = Eighth
S = Sixteenth
L = Sustain Note



Login or Register to remove this ad.