Cry for the Moon (Nagi no Asukara) Ukulele Tab

Submitted: Apr 16, 2015 by CandyCane52

3
Average: 3 (2 votes)
Download | Listen
Game: Nagi no Asukara
Composer(s): Yoshiaki Dewa, Zentaro Watanabe, Saigenji
Style: Transcription

AutoScroll: Slow | Medium | Fast
Cry for the Moon
Nagi no Asukara (Anime)
Yoshiaki Dewa
CandyCane52
24/03/2015

 :00	(supposed to be up one octave)			:19			   :29
G---------------------------------------------------------------------------------------------------
C-2---------------1-----------2-------------------------------------------------------------------1-
E-2-4-5---0---4p2-0-2-4-0-2---2-4-5---0-----0-------2---2-4-5-------4p2-0-2-4------4-0h2--2h4--0--2-
A-------4-2---------------0---------4-2---2-2-4-5-7-4---------4-2-------------2-0-------------------
 :36			     :41					:56
G-----------------------------------------------------------------------------------
C------------------6-------4----2--------1------2-------------------------1---------
E-5---------4------5-4-5---4----2--0h2---0-----------------0---------0------------0-
A-4-2h4--7--2---7--------4-------------0----0-4-5-7-0-2----4-2h4--7--2--2-7-5-4-0---
 1:00				   1:09
G------------------------------------------------------------------------
C---4-------1----------------------1-------------------------------------
E-4-2-4-5-0---------------5-5--7---5p4h5-----2-----------------5-4h5---2-
A-------------0-7-5p4h5---9-9--11---------4-----4-2-4h5--7-4---------4---
 1:21		 1:26		     1:33				 
G--------------------------------------------------------------------------  
C--------------------------------2------5----------------------------------  
E-----7-9-10p9--7---5-4h5---2-----------4----------------9-5---------------  
A-9-7---------------------4----4-2--5-4-4--(14)--12-11-9---7-5-0-4-2---0-0-  
 1:43
G--------------------------------------------------------------------------------
C----7----7----7----7----5----5----5----5-----7----7----7----7----5----5----5----
E----8----8----8----8----8----8----8----8-----8----8----8----8----8----8----8----
A-10---10---10---10---10---10---10---10----10---10---10---10---10---10---10---10-
 2:00					 2:12
G--------------------------------------------------------------------------------
C-----------------2--------0-------------7-7-7-7--7-7----------------------------
E----------1------3------0-0----------1---------------0----------------7p5-3-5h7-
A-0-2h3--7-5--2p0---0h2----3--0-2h3-7-5--5-5-7h8-10-7---0-2-0-2h3-7-5------------
 2:20		      	       2:33
G------------------------------------------------------------------------------------
C------------------------------------------------------------------------------------
E-----------------3-5---------------------7p5-3-5h7--3--------------------0-3-----10-
A-5-3--2-0--0-2--------7-5----0-2h3--7-5----------------3--0-2h3--7-5--2--3---5-7-10-
Login or Register to remove this ad.