Ads

Myrtana At Night (Gothic 3) Guitar Tab

Submitted: Aug 07, 2010 by blackriderrom (Last updated: Aug 17, 2010)

5
Average: 5 (1 vote)
Download | Listen
Game: Gothic 3
Composer(s): Kai Rosenkranz
Style: Transcription

Click here for a video example.

AutoScroll: Slow | Medium | Fast
--------------------------------------------------------------------------------------
	Myrtana At Night - Kai Rosenkranz (Gothic 3 Soundtrack)
--------------------------------------------------------------------------------------
Tabbed by: blackriderrom
Email: [email protected]

Tuning: Standard
Notes: As I made the tab for myself (seeing as I couldn't find it on the internet), 
I didn't really fit the notes with the track's timing. 
You should listen to the actual track while learning the tab to get the timing right.

0:00
E|-------------------------------------
B|-------------------------------------
G|-0/2----2---2-4-5--------------------
D|-------------------------------------
A|-------------------------------------
E|-------------------------------------

0:06
E|-------------------------------------
B|-0-1-3-5-5/6\5-5---------------------
G|-------------------------------------
D|-------------------------------------
A|-------------------------------------
E|-------------------------------------

0:12
E|-------------------------------------
B|-3-5-5/6-5-6-6/8-6-5-5---------------
G|-------------------------------------
D|-------------------------------------
A|-------------------------------------
E|-------------------------------------

0:16
E|-------------------------------------
B|-5-6-5\3-3\1-1-0-1-0\1-0-1-----------
G|-------------------------------------
D|-------------------------------------
A|-------------------------------------
E|-------------------------------------

0:24
E|-------------------------------------
B|---0-1-0-1-3-5-6-5-3-5---------------
G|-2-----------------------------------
D|-------------------------------------
A|-------------------------------------
E|-------------------------------------

0:35
E|-------------------------------------
B|-------------------------------------
G|-5-7-5-4-5-7-5-4/5\4-2-4-4/5\4-2-----
D|-------------------------------------
A|-------------------------------------
E|-------------------------------------

0:41
E|--------------------------------------
B|--------------------------------------
G|-4/5/7-7/9-7-9-10-9-7-5-4-2-4-5-7-9-7-
D|--------------------------------------
A|--------------------------------------
E|--------------------------------------

0:48
E|--------------------------------------
B|-12/13\10-10-10-10-10-10--------------
G|--------------------------------------
D|--------------------------------------
A|--------------------------------------
E|--------------------------------------

0:52
E|----12-13-12--------------------------
B|-10----------13-15-12-13-12-10-13-12--
G|--------------------------------------
D|--------------------------------------
A|--------------------------------------
E|--------------------------------------

0:57
E|--------------------------------------
B|-10-8-10-8-5-5-5-6-8-6-5-6-5-3-1-0----
G|--------------------------------------
D|--------------------------------------
A|--------------------------------------
E|--------------------------------------

1:06
E|--------------------------------------
B|-1-3-3/5-3-1-0-1-0-1-0-1-9/13-12-13-15
G|--------------------------------------
D|--------------------------------------
A|--------------------------------------
E|--------------------------------------

1:10
E|-12-12/13-12-13-15-13-12-13-12-12/13\12-13
B|------------------------------------------
G|------------------------------------------
D|------------------------------------------
A|------------------------------------------
E|------------------------------------------

1:15
E|-12-10-12---------------------------------
B|----------13-12-13-15-13-12-13-12-10-8-10-
G|------------------------------------------
D|------------------------------------------
A|------------------------------------------
E|------------------------------------------

************************************

| /   slide up
| \   slide down

************************************
Login or Register to remove this ad.